VGJam Tabs Chrono Trigger
Chrono Trigger
"Robo's Theme" - Guitar tab
Platform(s):Super NES
Composed by:Yasunori Mitsuda, Nobuo Uematsu, Noriko Matsueda
Soundtrack:Chrono Trigger Original Sound Version [PSCN-5021~3] (track D2-09)
Tabbed by:Thomas McManus
Last modified:2000-12-12
Print it:Original file (.TXT)
Hear it:MIDI file
Song: Robo's Theme
Game: Chrono Trigger
Composed by: Yasunori Mitsuda
Tabbed by: Thomas McManus (tom0015@hotmail.com)

e-----0-0---0-0-0--2-2-0------0-0------------------0-0---0-0-0--
B-3-3---------------------3-3-----3-2----------3-3--------------
G-------------------------------------2~~~~---------------------
D---------------------------------------------------------------
A---------------------------------------------------------------
E---------------------------------------------------------------

e-5-2~-0-------0-0----------------2-2--3-5~--5-5-3-2-0~----0-2--
B----------3-3------------------3------------------------3------
G------------------2~-4~~~~-------------------------------------
D---------------------------------------------------------------
A---------------------------------------------------------------
E---------------------------------------------------------------

e-2--3-5------------------0-2-2--3-5--5-5-7-5-5-3-2-2~~~~~~~----
B---------------2~~~----3---------------------------------------
G--------2-4~~~-------------------------------------------------
D---------------------------------------------------------------
A---------------------------------------------------------------
E---------------------------------------------------------------

repeat
VGJam Tabs Chrono Trigger - "Robo's Theme"
Tabs database last modified Tuesday, 01-Nov-2016 19:14:53 UTC.
Copyright © 1999 - 2016 VideoGameJam.com. All rights reserved.