VGJam Tabs Chrono Trigger
Chrono Trigger
"Factory Ruins" - Guitar tab
Platform(s):Super NES
Composed by:Yasunori Mitsuda, Nobuo Uematsu, Noriko Matsueda
Soundtrack:Chrono Trigger Original Sound Version [PSCN-5021~3] (track D2-10)
Tabbed by:Arcallach
Last modified:2002-04-04
Print it:Original file (.TXT)
Hear it:MIDI file
Song: Factory Ruins
From: Chrono Trigger
Tabbed by Arcallach (arcallach@erols.com)
Feel free to send comments, corrections, requests, or anything else.

Bells

e-10-10---8-8---11---11-11-13---13-10-10---8-8---11---11-11-13-10-
B-10-10---8-8---11---11-11-13---13-10-10---8-8---11---11-11-13-10-
G-----------------------------------------------------------------
D-----------------------------------------------------------------
A-----------------------------------------------------------------
E-----------------------------------------------------------------

Crystal Pad

e-10----8----10----8----10----8----10----8----10----8----7--3--5--
B--8----6-----8----6-----8----6-----8----6-----8----6----5--1--3--
G-----------------------------------------------------------------
D-----------------------------------------------------------------
A-----------------------------------------------------------------
E-----------------------------------------------------------------

Electric Guitar

e-----------------------------------------------------------------
B-----------------------------------------------------------------
G---------------------0-2---0-------------------------------------
D-0---0-3---0-------0-----3---------------------------------------
A---3-----------3-------------------------------------------------
E-----------------------------------------------------------------

VGJam Tabs Chrono Trigger - "Factory Ruins"
Tabs database last modified Tuesday, 01-Nov-2016 19:14:53 UTC.
Copyright © 1999 - 2016 VideoGameJam.com. All rights reserved.