VGJam Tabs Animal Crossing
Animal Crossing
"K.K. Love Song" - Guitar tab
Platform(s):GameCube
Composed by:Kenta Nagata, Toru Minegishi, Shinobu Tanaka
Tabbed by:Deezer
Last modified:2008-10-21
Date added:2008-10-21
Print it:Original file (.TXT)
#----------------------------------PLEASE NOTE---------------------------------#
#This file is the author's own work and represents their interpretation of the #
#song. You may only use this file for private study, scholarship, or research. #
#------------------------------------------------------------------------------#

Animal Crossing (Nintendo GameCube)
"K.K. Love Song"

Originally composed by: ?
------------------------------------------------------------------------------
Tabbed by: Deezer (deezer AT videogamejam DOT com)
For http://www.videogamejam.com
------------------------------------------------------------------------------

This song, which also appears in Animal Crossing: Wild World for DS, has some
interesting chord shapes that serve as good fingerpicking practice.


Standard tuning: (low to high) EADGBe
Capo recommended for Part 4.


Part 1
======

||------------2----------2--|-----------2----------2--|
||---------3-------3--------|-----3----------3--------|
||*-----2-------------2-----|--------2----------2-----|
||*--0----------------------|-------------------------|
||--------------------------|-------------------------|
||--------------------------|-------------------------|


                                                    3x
-----------2----------2--|-----------2----------2---||-------------------------|
--------0-------0--------|-----0----------0---------||-----------0----------0--|
-----2-------------2-----|--------2----------2-----*||--------2-------2--------|
-------------------------|-------------------------*||-----2-------------2-----|
-------------------------|--------------------------||-------------------------|
--3----------------------|--------------------------||--2----------------------|


-------------------------|-------------------------|-----------0----------0--|
-----------0----------0--|-----------3----------3--|--------0-------0--------|
-----2----------2--------|--------0-------0--------|-----0-------------0-----|
--------2----------2-----|-----4-------------4-----|-------------------------|
-------------------------|-------------------------|--0----------------------|
-------------------------|--0----------------------|-------------------------|


-----------2----------2--|-----------2----------2--|-----------2----------2--|
--------3-------3--------|-----3----------3--------|--------0-------0--------|
-----2-------------2-----|--------2----------2-----|-----2-------------2-----|
--0----------------------|-------------------------|-------------------------|
-------------------------|-------------------------|-------------------------|
-------------------------|-------------------------|--3----------------------|


-----------2----------2--|-------------------------|-------------------------|
-----0----------0--------|-----------0----------0--|-----------2----------2--|
--------2----------2-----|--------2-------2--------|--------2-------2--------|
-------------------------|-----2-------------2-----|-----2-------------2-----|
-------------------------|-------------------------|--2----------------------|
-------------------------|--2----------------------|-------------------------|


-------------------------|-------------------|-------------------|
-----------3----------3--|-(0----------------|-------------------|
--------0-------0--------|-)0----------------|-------------------|
-----4-------------4-----|-(2----------------|-------------------|
-------------------------|-)0----------------|-------------------|
--0----------------------|-------------------|-------------------|


Part 2
====== 

||------------2----------2--|-----------2----------2--|-----------2----------2--|
||---------3-------3--------|-----3----------3--------|--------0-------0--------|
||*-----2-------------2-----|--------2----------2-----|-----2-------------2-----|
||*--0----------------------|-------------------------|-------------------------|
||--------------------------|-------------------------|-------------------------|
||--------------------------|-------------------------|--3----------------------|


                          3x
-----------2----------2---||-----------2----------2--|-----------2----------2--|
-----0----------0---------||--------3-------3--------|-----3----------3--------|
--------2----------2-----*||-----2-------------2-----|--------2----------2-----|
-------------------------*||--0----------------------|-------------------------|
--------------------------||-------------------------|-------------------------|
--------------------------||-------------------------|-------------------------|


-)2----------------|-------------------|
-(0----------------|-------------------|
-)2----------------|-------------------|
-------------------|-------------------|
-------------------|-------------------|
-(3----------------|-------------------|


Part 3
======

-----------2----------2--|-----------2----------2--|
--------3-------3--------|-----3----------3--------|
-----2-------------2-----|--------2----------2-----|
--0----------------------|-------------------------|
-------------------------|-------------------------|
-------------------------|-------------------------|


-----------2----------2--|-----------2----------2--|-------------------------|
--------0-------0--------|-----0----------0--------|-----------0----------0--|
-----2-------------2-----|--------2----------2-----|--------2-------2--------|
-------------------------|-------------------------|-----2-------------2-----|
-------------------------|-------------------------|-------------------------|
--3----------------------|-------------------------|--2----------------------|


-------------------------|-------------------------|-----------0----------0--|
-----------0----------0--|-----------3----------3--|--------0-------0--------|
-----2----------2--------|--------0-------0--------|-----0-------------0-----|
--------2----------2-----|-----4-------------4-----|-------------------------|
-------------------------|-------------------------|--0----------------------|
-------------------------|--0----------------------|-------------------------|


-----------2----------2--|-----------2----------2--|-----------2----------2--|
--------3-------3--------|-----3----------3--------|--------0-------0--------|
-----2-------------2-----|--------2----------2-----|-----2-------------2-----|
--0----------------------|-------------------------|-------------------------|
-------------------------|-------------------------|-------------------------|
-------------------------|-------------------------|--3----------------------|


-----------2----------2--|-------------------------|-------------------------|
-----0----------0--------|-----------0----------0--|-----------2----------2--|
--------2----------2-----|--------2-------2--------|--------2-------2--------|
-------------------------|-----2-------------2-----|-----2-------------2-----|
-------------------------|-------------------------|--2----------------------|
-------------------------|--2----------------------|-------------------------|


-------------------------|-------------------|-------------------|
-----------3----------3--|-(0----------------|-------------------|
--------0-------0--------|-)0----------------|-------------------|
-----4-------------4-----|-(2----------------|-------------------|
-------------------------|-)0----------------|-------------------|
--0----------------------|-------------------|-------------------|


Part 4
======

Quickly slide a capo onto the first fret for this section.
(Part 4 is Part 2 played a half step higher.)

||------------2----------2--|-----------2----------2--|
||---------3-------3--------|-----3----------3--------|
||*-----2-------------2-----|--------2----------2-----|
||*--0----------------------|-------------------------|
||--------------------------|-------------------------|
||--------------------------|-------------------------|


                                                    3x
-----------2----------2--|-----------2----------2---||-----------2----------2--|
--------0-------0--------|-----0----------0---------||--------3-------3--------|
-----2-------------2-----|--------2----------2-----*||-----2-------------2-----|
-------------------------|-------------------------*||--0----------------------|
-------------------------|--------------------------||-------------------------|
--3----------------------|--------------------------||-------------------------|


-----------2----------2--|-)2----------------|-------------------|
-----3----------3--------|-(0----------------|-------------------|
--------2----------2-----|-)2----------------|-------------------|
-------------------------|-------------------|-------------------|
-------------------------|-------------------|-------------------|
-------------------------|-(3----------------|-------------------|
                rit.
                

Last modified: 10/21/2008

VGJam Tabs Animal Crossing - "K.K. Love Song"
Tabs database last modified Thursday, 17-Apr-2014 20:21:29 CDT.
Copyright © 1999 - 2014 VideoGameJam.com. All rights reserved.