VGJam Tabs Marvel vs. Capcom: Clash of Super Heroes
Marvel vs. Capcom: Clash of Super Heroes
"Fighter select" - Guitar tab
Platform(s):Arcade
Tabbed by:Cryptopsy911
Last modified:2002-07-19
Print it:Original file (.TXT)
Hear it:MIDI file
Tabbed By: Cryptopsy911
Song: Marvel vs Capcom - Select Fighter
System: Arcade

Tune to E

-----------------------------------------|
-----------------9-------------------9~~-|
-----9-----11~~---------9------11~~------|
9~~-----9------------9-----9-------------|
-----------------------------------------|
-----------------------------------------|

--------------------------------------------|
-------------9------------------------------|
------9---------11--9------8--8~--9~--11~~--|
-11~-----11------------11-------------------|
--------------------------------------------|
--------------------------------------------|

Repeat...uhh...for a while
Woo!
VGJam Tabs Marvel vs. Capcom: Clash of Super Heroes - "Fighter select"
Tabs database last modified Tuesday, 01-Nov-2016 19:14:53 UTC.
Copyright © 1999 - 2016 VideoGameJam.com. All rights reserved.