VGJam Tabs Chrono Trigger
Chrono Trigger
"Primitive Mountain" - Guitar tab
Platform(s):Super NES
Composed by:Yasunori Mitsuda, Nobuo Uematsu, Noriko Matsueda
Soundtrack:Chrono Trigger Original Sound Version [PSCN-5021~3] (track D2-18)
Tabbed by:Thomas McManus
Last modified:2002-01-28
Print it:Original file (.TXT)
Hear it:MIDI file
Song: Primitive Mountain
Game: Chrono Trigger
Composed by: Nobuo Uematsu
Tabbed by: Thomas McManus (tom0015@hotmail.com)


bass intro (play twice):
G---------------------------------------------------
D----0--2-------0-----2-------0--2-------0----------
A-0--------0--3---2-0------0--------0--3---2-0------
E---------------------------------------------------

e---------------------------------------------------|\
B-5~-5-5-5-5--5-5-5-6~\5---5~-5-5-5-5--5-5-6~p5-----| \
G---------------------------------------------------|  \
D---------------------------------------------------|   \
A---------------------------------------------------|   play
E---------------------------------------------------|    x2
|                                                   |    /
G---------------------------------------------------|   /
D----0--2-------0-----2-------0--2-------0----------|  /
A-0--------0--3---2-0------0--------0--3---2-0------| /
E---------------------------------------------------|/

e----------------------------------------------------|\
B----------------------------------------------------| \
G-5~~~~~~~~~~~~~~~~~~~~~~~-2~~~~~~~~~~~~~~~~~~~~~~~~-|  \
D----------------------------------------------------|   \
A----------------------------------------------------|   play
E----------------------------------------------------|    x2
|                                                    |    /
G----------------------------------------------------|   /
D-----------0--2---------------------0--2--1---------|  /
A-0----3----------0--------0----3--------------------| /
E----------------------------------------------------|/

e---------------------------------------------------|\
B-5~-5-5-5-5--5-5-5-6~\5---5~-5-5-5-5--5-5-6~p5-----| \
G---------------------------------------------------|  \
D---------------------------------------------------|   \
A---------------------------------------------------|   play
E---------------------------------------------------|    x2
|                                                   |    /
G---------------------------------------------------|   /
D----0--2-------0-----2-------0--2-------0----------|  /
A-0--------0--3---2-0------0--------0--3---2-0------| /
E---------------------------------------------------|/

guitar solo:
e-----------------------------------------------------
B-------------------------------7p6-7p6-7-7p6-7p6-----
G-2~~~~-0~~-----------2~~~~-0~~-----------------------
D-----------4~~-2~~~~---------------------------------
A-----------------------------------------------------
E-----------------------------------------------------

e--------------------------------------------------------------------
B-------------------------------7p6-7p6-7-7p6-7p6--6p5-6p5-6-6p5-6p5-
G-2~~~~-0~~-----------2~~~~-0~~--------------------------------------
D-----------4~~-2~~~~------------------------------------------------
A--------------------------------------------------------------------
E--------------------------------------------------------------------

repeat.

VGJam Tabs Chrono Trigger - "Primitive Mountain"
Tabs database last modified Monday, 21-Jul-2014 21:11:05 CDT.
Copyright © 1999 - 2014 VideoGameJam.com. All rights reserved.