VGJam Tabs Chrono Trigger
Chrono Trigger
"Burn! Bobonga!" - Guitar, Bass tab
Platform(s):Super NES
Composed by:Yasunori Mitsuda, Nobuo Uematsu, Noriko Matsueda
Soundtrack:Chrono Trigger Original Sound Version [PSCN-5021~3] (track D2-21)
Tabbed by:Thomas McManus
Last modified:2002-01-28
Print it:Original file (.TXT)
Hear it:MIDI file
Song: Burn! Bobonga!
Game: Chrono Trigger
Composed by: Nobuo Uematsu
Tabbed by: Thomas McManus (tom0015@hotmail.com)

This is a rough guide of how the bass and guitar fit together, listen
to the song to get a better idea.

e-1--2----2--1--2----2--3--2--2--1--2--2----5~~-3~~-2~~~~~~------|
B----------------------------------------------------------------|
G----------------------------------------------------------------|
D----------------------------------------------------------------|
A----------------------------------------------------------------|
E----------------------------------------------------------------|
|                                                                |
G----------------------------------------------------------------|
D----------------------------------------------------------------|
A----------------------------------------------------------------|
E-1-2--2-3-2--2-1-1-3-2-0-1-2---1-2--2-3-2--2-1-1-3-2-0-1-2------|

e-1--2----2--1--2----2--3--2--2--1--2--2----5~~-3~~-2~~~~~~------|
B----------------------------------------------------------------|
G----------------------------------------------------------------|
D----------------------------------------------------------------|
A----------------------------------------------------------------|
E----------------------------------------------------------------|
|                                                                |
G----------------------------------------------------------------|
D----------------------------------------------------------------|
A----------------------------------------------------------------|
E-1-2--2-3-2--2-1-1-3-2-0-1-2---1-2--2-3-2--2-1-1-3-2-0-1-2------|

e-2~~-2-3-2~~-2---0-2-3-5-2~~------------------------------------|
B---------------2-------------2-2~-5~~~-3-2~~~-0-3~b\2~~~~~~~~---|
G----------------------------------------------------------------|
D----------------------------------------------------------------|
A----------------------------------------------------------------|
E----------------------------------------------------------------|
|                                                                |
G----------------------------------------------------------------|
D----------------------------------------------------------------|
A----------------------------------------------------------------|
E-1-2--2-3-2--2-1-1-3-2-0-1-2---1-2--2-3-2--2-1-1-3-2-0-1-2------|

e-2~~-2-3-2~~-2---0-2-3-5-2~~-2-2-9~~-7-5~~-5-3-2-2-0-3-2~~~~~~--|
B---------------2------------------------------------------------|
G----------------------------------------------------------------|
D----------------------------------------------------------------|
A----------------------------------------------------------------|
E----------------------------------------------------------------|
|                                                                |
G----------------------------------------------------------------|
D----------------------------------------------------------------|
A----------------------------------------------------------------|
E-1-2--2-3-2--2-1-1-3-2-0-1-2---1-2--2-3-2--2-1-1-3-2-0-1-2------|

bass solo:
G----------------------------------------------------------------
D----------------------------------------------------------------
A----------------------------------------------------------------
E-1-2--2-3-2--2-1-1-3-2-0-1-2---1-2--2-3-2--2-1-1-3-2-0-1-2------

Repeat.

VGJam Tabs Chrono Trigger - "Burn! Bobonga!"
Tabs database last modified Tuesday, 01-Nov-2016 19:14:53 UTC.
Copyright © 1999 - 2016 VideoGameJam.com. All rights reserved.