VGJam Tabs Chrono Trigger
Chrono Trigger
"At the Bottom of Night" - Guitar tab
Platform(s):Super NES
Composed by:Yasunori Mitsuda, Nobuo Uematsu, Noriko Matsueda
Soundtrack:Chrono Trigger Original Sound Version [PSCN-5021~3] (track D3-03)
Tabbed by:Zack Kiley
Last modified:2000-10-21
Print it:Original file (.TXT)
Hear it:MIDI file
Chrono Trigger "Sad song"

Here ya go, this is it. It is much easier to do this on 2 guitars 
(for a really nice sound, do it on 2 acoustic guitars) but if you are
a chord changing master, you can try it on one. Well I hope this is a little better
I'm not to sure on the difficulty as my guitar is in the shop and I can't play it
so send me some comments on the difficulty (FINGERPICK AS ALWAYS OR YOU'LL NEVER PLAY IT
RIGHT!!!) Well good luck, if ya want anything else tabbed, send it my way at 
Rayden99@aol.com

E  :|*-----5----------|------------------|----------------|
B  :|*3---------5---5-|-----------5----5-|--5-6---------6-|
G  :| ------------2---|------------------|7-----5---------|
D  :| ----------------|---------7--------|----------7-----|   <---Guitar 1
A  :| ----------5-----|-------5----------|--------5-------|
E  :| ----------------|------------------|------5---------|

E  :|*----------------|-8------------8---|------------6---|
B  :|*----------------|10-----------10---|------------6---|
G  :| ----------------|10-----------10---|------------7---|  <---Guitar 2
D  :| ----------------|------------------|------------8---|
A  :| ----------------|------------------|----------------|
E  :| ----------------|------------------|----------------|

=============================================================================

E  :----------------|---5--------------|----------------|
B  :-----------6---8|-------5----------|---------5---6--|
G  :----------------|------------------|-------7-------5|
D  :-------7--------|------------------|-----7-8--------|   <---guitar 1
A  :-----5----------|-----8------------|---8---8--------|
E  :---5------------|---8--------------|-8-------------3|

E  :---------6------|---------10-------|----------------|
B  :---------6------|---------10-------|----------------|
G  :---------7------|---------10-------|----------------|        <---guitar 2
D  :---------8------|---------12-12----|----------------|
A  :----------------|------------------|----------------|
E  :----------------|------------------|----------------|

=============================================================================

E  :-----5---------1--|--------------------------*1|
B  :-----6-------2----|--------------------------*||
G  :-----5-----3------|-------------------------- ||
D  :---3--------------|-------------------------- ||
A  :-3----------------|-------------------------- ||
E  :------------------|-------------------------- ||
               |upstroke these notes--|
E  :------------------|--------------0-----------*1|
B  :------------------|------------2-------------*||  <>
G  :------------------|----------3--------------- ||
D  :------------------|-------------------------- ||
A  :------------------|-------------------------- ||
E  :------------------|-------------------------- ||


 Zack Kiley 2000 All rights reserved. Actually do whatever you want with this, take credit for it
doesn't matter to me (you live with the guilt though) 


VGJam Tabs Chrono Trigger - "At the Bottom of Night"
Tabs database last modified Tuesday, 01-Nov-2016 19:14:53 UTC.
Copyright © 1999 - 2016 VideoGameJam.com. All rights reserved.