VGJam Tabs Chrono Trigger
Chrono Trigger
"Corridors of Time" - Guitar tab
Platform(s):Super NES
Composed by:Yasunori Mitsuda, Nobuo Uematsu, Noriko Matsueda
Soundtrack:Chrono Trigger Original Sound Version [PSCN-5021~3] (track D3-04)
Tabbed by:Thomas McManus
Last modified:2001-03-19
Print it:Original file (.TXT)
Hear it:MIDI file
Song: Chrono Trigger
Game: Corridors of Time
Composed by: Yasunori Mitsuda
Tabbed by: Thomas McManus (tom0015@hotmail.com)

The background riff is missing a note at the start, I can't figure out
what it is. Help?

Song order: BG riff x2, then lead. A second guitar can continue to play
the BG riff throughout the song.

Background riff:
e---------2-------0-------2---
B-------2-------2-------2-----
G-----4-------4-------4-------
D---4-------4-------4---------
A-----------------------------
E-----------------------------

Lead:
e--5--------------------------------------------------------------
B--7-----------------------------------------------------10-12-10-
G--7----11~~~~~-9~~~~~---------------13-13-11-11~--11-13----------
D--7-------------------11~~~~~----11------------------------------
A--5--------------------------------------------------------------
E--5--------------------------------------------------------------

e----------------------------------------------------------------
B-----------------------------------------10-12-12-14-14~~---14--
G-13-11-11--9-9~------13-13-11-11~--11-13------------------------
D------------------11--------------------------------------------
A----------------------------------------------------------------
E----------------------------------------------------------------

e-12-------------------------------------------------------------
B----14-10~~----10------14-12h14---------------------------------
G------------------11------------13~-11-9~~~~---9-11-------9-11--
D-------------------------------------------------------12-------
A----------------------------------------------------12----------
E----------------------------------------------------------------

e--------------------------------------------5-------------------
B--------------------------------------------7-------------------
G-13-14-13-------11-13-14-13-13---11-11------7------------9~~~~~-
D-------------14-----------------------------7-----9~~~~~--------
A----------14--------------------------------5-------------------
E--------------------------------------------5-------------------

e----------------------------------------------------------------
B-9~~~~~-10~~~-9-------------------------------------------------
G----------------9-6~~~~~---9------------------------------------
D-------------------------9---9~~~-7~~~-6~~~---------------------
A--------------------------------------------9~-7~-9~~~~~~-------
E----------------------------------------------------------------

e----------------------------------------------------------------
B---------------9~~~~~~-10~~~-9----------------------------------
G--------9~~~~~-----------------9-6~~~~-9~~~-11~~~~~~~-----------
D-9~~~~~---------------------------------------------------------
A----------------------------------------------------------------
E----------------------------------------------------------------

repeat from beginning
VGJam Tabs Chrono Trigger - "Corridors of Time"
Tabs database last modified Tuesday, 01-Nov-2016 19:14:53 UTC.
Copyright © 1999 - 2016 VideoGameJam.com. All rights reserved.