VGJam Tabs Chrono Trigger
Chrono Trigger
"Schala's Theme" - Guitar tab
Platform(s):Super NES
Composed by:Yasunori Mitsuda, Nobuo Uematsu, Noriko Matsueda
Soundtrack:Chrono Trigger Original Sound Version [PSCN-5021~3] (track D3-06)
Tabbed by:Grahf
Last modified:1999-05-04
Print it:Original file (.TXT)
Hear it:MIDI file
Schala's Theme
Crono Trigger
Tabbed by Grahf(Anthony Harris)

Here's basically all of it.  A lot of it repeats.  It
may remind you a bit of Id's theme, at least it does me.

---------------------------------------|---------------
-4---------2---------4---------6-------|---------------
------4---------4---------4---------7--|-4----2--------
---------------------------------------|-----------4---
---------------------------------------|---------------
---------------------------------------|---------------
riff is repeated througout song

--------------------|----------------------------------
--------------------|--5-----3---7-----3---2-3-2----3--
--------------------|--4-------------------4-----------
-2------0-----------|----------------------------------
-----------4--2-----|----------------------------------
--------------------|----------------------------------
             hold note

----------------3----------7----5----3--7----|---------
-5-----------2--0------0---10-----------7----|--3----5-
-------2-------------------------------------|-------4-
---------------------------------------------|---------
---------------------------------------------|---------
---------------------------------------------|---------


----------------------------------------------------3--
----3----7----3-----2--3--2-----3----5-----------2--0--
--------------------4---------------------2------------
-------------------------------------------------------
-------------------------------------------------------
-------------------------------------------------------


-------5-------------7---------------------------------
-0--2--0-----0-------0---------------------------------
-----------------2-------------------------------------
-------------------------------------------------------
-------------------------------------------------------
-------------------------------------------------------
VGJam Tabs Chrono Trigger - "Schala's Theme"
Tabs database last modified Tuesday, 01-Nov-2016 19:14:53 UTC.
Copyright © 1999 - 2016 VideoGameJam.com. All rights reserved.