VGJam Tabs Chrono Trigger
Chrono Trigger
"Chrono and Marle ~Far Off Promise~" - Guitar tab
Platform(s):Super NES
Composed by:Yasunori Mitsuda, Nobuo Uematsu, Noriko Matsueda
Soundtrack:Chrono Trigger Original Sound Version [PSCN-5021~3] (track D3-09)
Tabbed by:aweagel
Last modified:2002-11-11
Print it:Original file (.TXT)
Hear it:MIDI file
System:      SNES
Game Title:  Chrono Trigger
Song Title:  Crono and Marle: Far-Off Promise
Composer:    Yasunori Mitsuda
Tabbed By:   aweagel@yahoo.com


    + 1+2+3+4+5+6+ 1+2+3+4+5+6+ 1+2+3+4+5+6+ 1+2+3+4+5+6+
eb| - 0---0-2---7- 4---------2- 0---0-2----0 0-----------|
Bb| 0 ----0-----0- ------------ ----------2- ------4---2-|
Gb| - --1---2----- ------2-1-4- ------------ ------------|
Db| - 2-------4--- 2---2-----4- --1-----4--- --2-4-------|
Ab| - ------------ --2--------- 4---2-1---1- 2-----2-4-0-|
Eb| - ------------ ------------ ------------ ------------|

   1+2+3+4+5+6+ 1+2+3+4+5+6+ 1+2+3+4+5+6+ 1+2+3+4+5+6+
eb|---77-7-5-4- 5---5-5-4-2- 4---4-2---7- 0---0-----4-|
Bb|0----------- ------------ ------------ ------4-----|
Gb|----------1- ------------ --4-----4--- --4-----4---|
Db|--1-4---3--- 4---4-----1- 2---2-1---1- ------------|
Ab|------4----- --4---2----- ------------ 4---4-2---2-|
Eb|4----------- ------------ ------------ ------------|

   1+2+3+4+5+6+ 1+2+3+4+5+6+ 1+2+3+4+5+6+ 1+2+3+4+5+6+
eb|----------07 7-5-4-0---2- 0-----0----- 0-----------|
Bb|2---2-0----- ------------ ----0-----0- 0---0-------|
Gb|----2------- ------------ --2-----2--- 1-----------|
Db|--2-----1--- ----4-2-4-1- 2-----2----- 2-----2-----|
Ab|0----------- --4--------- ------------ 2-----------|
Eb|------4---4- 2----------- ------------ 0-----------|


 NOTES:

   *If you want to play guitar/bass duet with this piece,
    you can use this tab to do so.  Play the Bb and eb
    lines on guitar and the other four on bass.  The only
    change would be in the last two measures, where the
    guitar would play all lines as written and the bass
    would play an open Eb once per measure.

   *Tune everything down a half step and play the whole
    sequence twice if you intend on playing with the MIDI.

VGJam Tabs Chrono Trigger - "Chrono and Marle ~Far Off Promise~"
Tabs database last modified Tuesday, 01-Nov-2016 19:14:53 UTC.
Copyright © 1999 - 2016 VideoGameJam.com. All rights reserved.