VGJam Tabs Moon Patrol
Moon Patrol
"Main theme" - Guitar tab
Platform(s):Arcade
Tabbed by:Deezer
Last modified:1999-08-14
Print it:Original file (.TXT)
Hear it:MIDI file
#----------------------------------PLEASE NOTE---------------------------------#
#This file is the author's own work and represents their interpretation of the #
#song. You may only use this file for private study, scholarship, or research. #
#------------------------------------------------------------------------------#

Moon Patrol (Arcade)
"Main theme"

Originally composed by: ?
------------------------------------------------------------------------------
Tabbed by: Deezer (deezer@usa.net)
For http://www.kontek.net/vgjam/
------------------------------------------------------------------------------


The first time I encountered this game was when our day care center took a
field trip to a bowling alley (or somewhere), and this game was there. Our
supervisors wouldn't let us play it, so we all just crowded around the
machine, and watched the demo of the moon buggy thing jumping over pits and
shooting stuff. The music stuck in my head, and became an instant favorite of
mine.


Symbols used:
 x2 = Play this section 2 times.
 h  = Hammer on


Tuning: Down 1/2 step - (low to high) EbAbDbGbBbeb


eb|-------------------------------------------------|
Bb|-------------------------------------------------|
Gb|-------------------------------------------------|
Db|-------2--2-0-0----0--2-------2--2-0-0-----------|
Ab|----------------2----------------------2--0h1-2--|
Eb|--0--0-------------------0--0--------------------| x2

eb|--------------------------------------------------
Bb|--------------------------------------------------
Gb|-------2--2-0-0----0--2--------2--2-0-0-----------
Db|----------------2-----------------------2--0h1-2--
Ab|--0--0--------------------0--0--------------------
Eb|--------------------------------------------------

eb|-------------------------------------------------
Bb|-------------------------------------------------
Gb|-------------------------------------------------
Db|-------2--2-0-0----0--2-------2--2-0-0-----------
Ab|----------------2----------------------2--0h1-2--
Eb|--0--0-------------------0--0--------------------

eb|-----------------------------------------------
Bb|-----------------------------------------------
Gb|-------4--4-2-2----2--4-------2--2-0-0---0--2--
Db|----------------4----------------------2-------
Ab|--2--2-------------------0--0------------------
Eb|-----------------------------------------------

eb|--------------------------------------------------
Bb|--------------------------------------------------
Gb|--------------------------------------------------
Db|-------2--2-0-0----0--2---------------------------
Ab|----------------2---------------------0-0--0h1-2--
Eb|--0--0------------------0-0--0-4-4--4-------------

Repeat from beginning.


Last revised: 8/14/99

VGJam Tabs Moon Patrol - "Main theme"
Tabs database last modified Thursday, 17-Apr-2014 20:21:29 CDT.
Copyright © 1999 - 2014 VideoGameJam.com. All rights reserved.