VGJam Tabs Chrono Trigger
Chrono Trigger
"Epoch ~Winds That Cross Time~" - Guitar tab
Platform(s):Super NES
Composed by:Yasunori Mitsuda, Nobuo Uematsu, Noriko Matsueda
Soundtrack:Chrono Trigger Original Sound Version [PSCN-5021~3] (track D3-10)
Tabbed by:Thomas McManus
Last modified:2000-03-18
Print it:Original file (.TXT)
Hear it:MIDI file
Song: Epoch
Game: Chrono Trigger
Composed by: Yasunori Mitsuda
Tabbed by: Thomas McManus (tom0015@hotmail.com)


Riff B is the jazz improvisitional part in the middle, but it
goes too fast for me to tab it out. If someone could tab that
and send it to me, it'd complete the piece.


Intro:
e-6-5-6-5--3--1-3-1-3-1----1-3-3-3-3------1-3-3-3--
B------------------------3------------1-3----------
G--------------------------------------------------
D--------------------------------------------------
A--------------------------------------------------
E--------------------------------------------------


Riff A:
e---------1~-3-----------------------1~-3-5p3h5~-3~~-5-6-10~~~--
B-----1-3------3-3h5p3-1~~-1-----1-3----------------------------
G-3-3------------------------3-3--------------------------------
D---------------------------------------------------------------
A---------------------------------------------------------------
E---------------------------------------------------------------


e-5-8-3-1-3-1~----1-3~-1---1-0----------------------------------
B---------------3--------3-----3-1-3~~--------------------------
G---------------------------------------------------------------
D---------------------------------------------------------------
A---------------------------------------------------------------
E---------------------------------------------------------------


Riff B:
e---------------------------------------------------------------
B---------------------------------------------------------------
G---------------------------------------------------------------
D---------------------------------------------------------------
A---------------------------------------------------------------
E---------------------------------------------------------------


Play Intro, then Riff A twice, then Riff B. Repeat.

VGJam Tabs Chrono Trigger - "Epoch ~Winds That Cross Time~"
Tabs database last modified Tuesday, 01-Nov-2016 19:14:53 UTC.
Copyright © 1999 - 2016 VideoGameJam.com. All rights reserved.