VGJam Tabs Chrono Trigger
Chrono Trigger
"World Revolution" - Guitar tab
Platform(s):Super NES
Composed by:Yasunori Mitsuda, Nobuo Uematsu, Noriko Matsueda
Soundtrack:Chrono Trigger Original Sound Version [PSCN-5021~3] (track D3-13)
Tabbed by:Joey Anderson
Last modified:2002-07-01
Print it:Original file (.TXT)
Chrono Trigger - World Revolution
By Yatsunori Mashita/Nobuo Uematsu
Tabbed by Joey Anderson
Contact: mangled@midsouth.rr.com
Tabbed for Video Game Jam 
http://www.kontek.net/vgjam

#----------------------------------PLEASE NOTE----------------------------------#
# This file is the author's own work and represents their interpretation of the #
# song. You may only use this file for private study, scholarship, or research. #
#-------------------------------------------------------------------------------#


Key: h  - hammer on
     p  - pull off
     /  - slide up
     pm - palm mute

This is my first tab ever, so feel free to send any comments/criticism. 

I play this song with a good bit of distortion, since it lends itself 
to power chords and an overall heavy metal kind of sound. 


E---------------------------------------------
B---------------------------------------------
G---------------------------------------------
D---------------------------------------------
A--4--7--14-13h14p13--11--9--12--12/14--11----
E---------------------------------------------

E---------------------------------------------
B---------------------------------------------
G---------------------------------------------
D---------------------------------------------
A--4-6-6/7--14-13h14p13--11--9--12-14-14/16---
E---------------------------------------------

E----------------------------
B----------------------------
G----------------------------
D---------9--8--------7--6---
A---------9--8--------7--6---
E---0000--7--6--0000--5--4---  X 2
pm  ....        ....

E------------------------------------------------------------------------------------
B------------------------------------------------------------------------------------
G------------------------------------------------------------------------------------
D------------------------------------------------5-7-5----------------------------5-7
A--5-7-8-7-5---5-------5-------5-7-8-7-5---5-7-8----------5-7-8-7-5---5-------5-7----
E------------8---5-7-8---8---------------8--------------------------8---5-7-8--------

E----------------------------
B----------------------------
G----------------------------
D---------9--8--------7--6---
A---------9--8--------7--6---
E---0000--7--6--0000--5--4---  X 2
pm  ....        ....

E------------------------------------------------------------------------------------
B------------------------------------------------------------------------------------
G------------------------------------------------------------------------------------
D------------------------------------------------5-7-5----------------------------5-7
A--5-7-8-7-5---5-------5-------5-7-8-7-5---5-7-8----------5-7-8-7-5---5-------5-7----
E------------8---5-7-8---8---------------8--------------------------8---5-7-8--------

E--------------------------
B--------------------------
G--------------------------
D--7-7--8-8----7-7--10-10--
A--7-7--8-8----7-7--10-10--
E--5-5--6-6----5-5---8--8-- X 4

E----------------------------------------------
B-----------------------0--5--7-7h8--0--7---3--
G----------------------------------------------
D--10--12---11---------------------------------
A--10--12---11---------------------------------
E---8--10----9---------------------------------


VGJam Tabs Chrono Trigger - "World Revolution"
Tabs database last modified Tuesday, 01-Nov-2016 19:14:53 UTC.
Copyright © 1999 - 2016 VideoGameJam.com. All rights reserved.