VGJam Tabs Donkey Kong Country
Donkey Kong Country
"Theme" - Guitar tab
Platform(s):Super NES
Composed by:Robin Beanland, Eveline Fischer, Dave Wise
Soundtrack:DK Jamz: The Original Donkey Kong Country Soundtrack (track 01)
Tabbed by:Thomas McManus
Last modified:2000-03-18
Print it:Original file (.TXT)
Hear it:MIDI file
Song: Theme
Game: Donkey Kong Country
Composed by: David Wise
Tabbed by: Thomas McManus (tom0015@hotmail.com)


Riff A:
e-----5--1-3-1--------6--3-5-3-0--0-0-8--5-6-8-10--1-3-5-0-1-3-1-
B-1-1----------3--3-3--------------------------------------------
G----------------------------------------------------------------
D----------------------------------------------------------------
A----------------------------------------------------------------
E----------------------------------------------------------------


Riff B:
e-/5-5-1-3-5-3-1----6-3-6-3-5-6-8-6-5-5h6p5------
B----------------3-------------------------------
G------------------------------------------------
D------------------------------------------------
A------------------------------------------------
E------------------------------------------------


Riff C:
e--------------------
B-3-3-3-3-3-3-3h5----
G--------------------
D--------------------
A--------------------
E--------------------


Play order | Notes
Riff A      [record player]
Riff C x3   [over bassline]
Riff A      [slide between notes]
Riff C x6   [over bassline]
Riff B x2
Riff C      [over bassline]
Riff A      [fade out]

VGJam Tabs Donkey Kong Country - "Theme"
Tabs database last modified Tuesday, 01-Nov-2016 19:14:53 UTC.
Copyright © 1999 - 2016 VideoGameJam.com. All rights reserved.