VGJam Tabs Donkey Kong Country
Donkey Kong Country
"Funky's Fugue" - Guitar tab
Platform(s):Super NES
Composed by:Robin Beanland, Eveline Fischer, Dave Wise
Soundtrack:DK Jamz: The Original Donkey Kong Country Soundtrack (track 16)
Tabbed by:Thomas McManus
Last modified:1999-12-20
Print it:Original file (.TXT)
Hear it:MIDI file
Game: Donkey Kong Country
Song: Funky's Fugue
Composer: David Wise
Tabbed by: Thomas McManus (tom0015@hotmail.com)

Since this song is highly repetitive, I'll just give you the
riffs and then tell you how many times to play each and
in what order, instead of writing out the complete intro, etc.

riff one:
e--5-3-5-3-3p0--
B---------------

riff two:
e--5-3-5-3-3h5--
B---------------

riff three:
e------------------------------------------------------------
B------------------------------------------------------------
G-2-2-0-2-2-0-2-0--------------------2-2-0-2-2-0-2-0---------
D-----------------3-3-2-3-3-2-0-0-2------------------3-3-2-0-
A------------------------------------------------------------
E------------------------------------------------------------


song order (follows the DKC soundtrack):

Intro:
riff two
riff one x2
riff two x2
riff one x2

Main:
riff two
riff one x2
riff two x2
riff one x2
riff two x2
riff one x2
riff two x2
riff one x2

Interlude:
riff three x2

Main
Interlude
Intro (fade out)

VGJam Tabs Donkey Kong Country - "Funky's Fugue"
Tabs database last modified Tuesday, 01-Nov-2016 19:14:53 UTC.
Copyright © 1999 - 2016 VideoGameJam.com. All rights reserved.