VGJam Tabs Donkey Kong Country
Donkey Kong Country
"Gang-Plank Galleon" - Guitar tab
Platform(s):Super NES
Composed by:Robin Beanland, Eveline Fischer, Dave Wise
Soundtrack:DK Jamz: The Original Donkey Kong Country Soundtrack (track 21)
Tabbed by:dude
Last modified:2001-09-17
Print it:Original file (.TXT)
Hear it:MIDI file
Here's Donky Kong Country's Gang Plank Galleon:
(Whenever the guitar has more than one note, it's not a bad idea to break it
 into several guitars on this song.)

Intro:
E------------------------------------------------------------------------------------
B----------------------------------------1-------------------------------------------
G--------------------------------------2---3----2--2--0--2--2--0--2--0--2--3--5--2---
D--3--2--0-----0--2--3--2--0--2--3---3----------3--3--2--3--3--2--3--2--3--5--7--3---
A-----------3------------------------------------------------------------------------
E------------------------------------------------------------------------------------

E---------------------------------------------------------------------------------
B---------------------------------------------------------------------------------
G-------------------------------2-------2--2--0--2--2--0--2--0--2--3--5--3--2--0--
D--3--3--2--3--3--2--3--2--3--5-3----3--3--3--2--3--3--2--3--2--3--5--7--5--3--2--
A--5--5--3--5--5--3--5--3--5--7------5--------------------------------------------
E---------------------------------------------------------------------------------

E---------------------------------------------------------
B---------------------------------------------------------
G---------------2--0-----0--2--5--2-----------------------
D--3--2--3--5---3--2--3--2--3--7--3-------------3---------
A--5--3--5--7---------5-------------------------5---------
E---------------------------------------------------------

E----------------------------------------------------------------------------------------
B----------------------------------------------------------------------------------------
G----------------------------------------------------------------2--3--2--0--------------
D--0--0-----0--0-----0-----0--2--3--0-------------------------------------------3--2-----
A--------3--------3-----3---------------3--3--1--3--1--0--1--3---------------------------
E----------------------------------------------------------------------------------------

E-----------------------------------------------------------------
B-----------------------------------------------------------------
G---------------------------------------0-----------2--0----------
D--0--0------0--0-----0-----0--2--3--0-----2--1--2--------3--2----
A---------3--------3-----3----------------------------------------
E-----------------------------------------------------------------

E----------------------------------------------------------------------------
B----------------------------------------------------------------------------
G-----------------------------0--2-------------------------------------------
D--3--3--2--3--3--2--3--2--3--------3----0--0-----0--0-----0-----0--2--3--0--
A----------------------------------------------3--------3-----3--------------
E----------------------------------------------------------------------------

Verse:
(After drums and bass start it off)

E-------------------------------------------------------------
B-------------------------------------------------------------
G--2----5-------2--0-----------2----5--------5--------5\7-----
D------------3---------------------------3--------------------
A-----------------------7/5----------------------7------------
E-------------------------------------------------------------

E--5-----8--1----8---0----8\10-----
B----------------------------------
G----------------------------------
D--7----10--3---10--2----10\12-----
A----------------------------------
E--5-----8--1----8---0----8\10-----

Next Part:
(Once again, after drum and bass.)

E--------------------------------------------------------------------------------
B--------------------------------------------------------------------------------
G------------------------------------5---------------------------------------5---
D--7--7--5--7--7--5--7--5--7--5--7-----------------------------------------------
A-----------------------------------------8--8--7--8--8--7--8--7--8--7--8--------
E--------------------------------------------------------------------------------

E-----------------------------------------------
B-----------------------------------------------
G-----------------------------------------------
D--5--5------5--5-----5-----5------7--7--7------
A---------8---------8-----8-----8---------------
E-----------------------------------------------

E----------------------------------------------------------------------------------
B----------------------------------------------------------------------------------
G-------------------------------------5---------------------------------------5----
D--7--7--5--7--7--5--7--5--7--5--7--------3--3--2--3--3--2--3--2--3--2--3----------
A-------------------------------------3---------------------------------------3----
E--5--5--3--5--5--3--5--3--5--3--5--------1--1--0--1--1--0--1--0--1--0--1----------


E----------------------------------------------
B----------------------------------------------
G----------------------------------------------
D--5--5--3--5--5--3--5--3--5--3--7--7--7-------
A----------------------------------------------
E--3--3--1--3--3--1--3--1--3--5--5--5--5-------

Thatís it.
Any questions, comments, suggestions, or requests, email me at dude@bassplayer.st.

VGJam Tabs Donkey Kong Country - "Gang-Plank Galleon"
Tabs database last modified Tuesday, 01-Nov-2016 19:14:53 UTC.
Copyright © 1999 - 2016 VideoGameJam.com. All rights reserved.