VGJam Tabs Donkey Kong Country
Donkey Kong Country
"Gang-Plank Galleon" - Bass tab
Platform(s):Super NES
Composed by:Robin Beanland, Eveline Fischer, Dave Wise
Soundtrack:DK Jamz: The Original Donkey Kong Country Soundtrack (track 21)
Tabbed by:Thomas McManus
Last modified:1999-12-20
Print it:Original file (.TXT)
Hear it:MIDI file
Game: Donkey Kong Country
Song: Gangplank Galleon
Composer: David Wise
Tabbed by: Thomas McManus (tom0015@hotmail.com)

notes:

1. On section A, I'm not sure how many times to play each note -
I've written it 13 times each, but it might only be 10 or less,
or it could be more.

2. song order follows the DKC soundtrack.



Intro (after initial bagpipe ditty):
G----------
D-0-------- let ring
A----------

part A:
G-------------------------------------------------------------
D-0-0-0-0-0-0-0-0-0-0-0-0-0-----------------------------------
A---------------------------1-1-1-1-1-1-1-1-1-1-1-1-1-3-3-3-3-
E-------------------------------------------------------------

G-------------------------------------------------------------
D-------------------0-0-0-0-0-0-0-0-0-0-0-0-0---0-------------
A-3-3-3-3-3-3-3-3-3---------------------------3---------------
E-------------------------------------------------------------


part B:
G--------------------------------------------------------------
D-0-0-0-0-0---------------------------0-0-0-0-0-0-0-0-0-0---0--
A-------------1-1-1-1-1---3-3-3-3-3-----------------------3----
E--------------------------------------------------------------


song order:
Intro
Part A x4
Part B x2
Part A
Part B x2

VGJam Tabs Donkey Kong Country - "Gang-Plank Galleon"
Tabs database last modified Tuesday, 01-Nov-2016 19:14:53 UTC.
Copyright © 1999 - 2016 VideoGameJam.com. All rights reserved.