VGJam Tabs Donkey Kong Country
Donkey Kong Country
"Rattle Battle" - Guitar tab
Platform(s):Super NES
Composed by:Robin Beanland, Eveline Fischer, Dave Wise
Tabbed by:Devan D.
Last modified:2004-06-29
Print it:Original file (.TXT)
Donkey Kong Country 2 for SNES - "Rattle Battle" intro tune.

This tab for the catchy intro to Rattle Battle is 100% accurate. Try and play it as fast as you can! I'll try to work on the background ryhthms as well, since this could possibly be arranged for 3 guitars. if you have any other songs from any DKC games, or want a slowed-down version of the Rattle Battle tune itself, email me at UZI4U182@suscom.net.

If you want to hear the original tune, go here: http://userweb.suscom.net/~uzi4u182/dkc2tune.wav


e|------------------------------------------------------|
b|------------------------------------------------------|
g|------------------------2-----------------------------|
d|--3-2-0---0-2-3-2-0-2-3---3--3-2-0---0-2-3-2-0-2-3----|
a|--------3--------------------------3------------------|
e|------------------------------------------------------|

e|------------------------------------------------------|
b|--1-----------------------1---------------------------|
g|----3-2-2-0-2-2-0-2-0-2-3---2-------------------0-2---|
d|------------------------------3-3-2-3-3-2-3-2-3-------|
a|------------------------------------------------------|
e|------------------------------------------------------|

e|--------------------------------------------------------|
b|--------------------------1-----------------------------|
g|----0-2-2-0-2-2-0-2-0-2-3---3-2-0-------0-2-0-------2---|
d|--3-------------------------------3-2-3-------3-2-3--3--|
a|--------------------------------------------------------|
e|--------------------------------------------------------|

e|--------------------------------------------------------|
b|--------------------------------------------------------|
g|------------------------2--------------------------2----|
d|--3-2-0---0-2-3-2-0-2-3---3--3-2-0---0-2-3-2-0-2-3---3--|
a|--------3--------------------------3--------------------|
e|--------------------------------------------------------|

2004 Devan D.

VGJam Tabs Donkey Kong Country - "Rattle Battle"
Tabs database last modified Tuesday, 01-Nov-2016 19:14:53 UTC.
Copyright © 1999 - 2016 VideoGameJam.com. All rights reserved.