VGJam Tabs E.V.O.: Search for Eden
E.V.O.: Search for Eden
"Title theme" - Guitar tab
Platform(s):Super NES
Tabbed by:Tender Lumplings
Last modified:2002-09-28
Print it:Original file (.TXT)
System: SNES (Famicon)
Game: E.V.O.: Search for Eden
Song: Title Theme
(c)1993 Enix
Tabbed by: Tender Lumplings (the_skeleton_in_the_closet@hotmail.com)

E |-------------------------------------------
B |-----7-8-7-8-3---9--9--10-11-12---9-7--8-5-
G |--7----------------------------------------
D |-------------------------------------------
A |-------------------------------------------
E |-------------------------------------------

   -------------------------------------------
   --9-10-9-10-5--10-10-11-12-13--12-9--11-8--
   -------------------------------------------
   -------------------------------------------
   -------------------------------------------
   -------------------------------------------

   -----------------------------------------------
   --9-10-12--10-11-13--13-14-15-15--15-16-17-17--
   -----------------------------------------------
   -----------------------------------------------
   -----------------------------------------------
   -----------------------------------------------

   -----------------------------------------------
   --16-17-18-18-17-17-16-16-15-15-14-18-17-17-16-
   -----------------------------------------------
   -----------------------------------------------
   -----------------------------------------------
   -----------------------------------------------

   ----------------------------|
   --16-15-15-14--12-13-14-15--|
   ----------------------------|
   ----------------------------|
   ----------------------------|
   ----------------------------|
VGJam Tabs E.V.O.: Search for Eden - "Title theme"
Tabs database last modified Tuesday, 01-Nov-2016 19:14:53 UTC.
Copyright © 1999 - 2016 VideoGameJam.com. All rights reserved.