VGJam Tabs EarthBound
EarthBound
"Credits theme" - Guitar tab
Platform(s):Super NES
Composed by:Keiichi Suzuki
Tabbed by:Deezer
Last modified:1999-08-09
Print it:Original file (.TXT)
Hear it:MIDI file
#----------------------------------PLEASE NOTE---------------------------------#
#This file is the author's own work and represents their interpretation of the #
#song. You may only use this file for private study, scholarship, or research. #
#------------------------------------------------------------------------------#

EarthBound (Super NES)
"Photo album: Credits theme"

Originally composed by: Keiichi Suzuki
------------------------------------------------------------------------------
Tabbed by: Deezer (deezer@usa.net)
For http://www.kontek.net/vgjam/
------------------------------------------------------------------------------

Symbols used:
 x2 = Play this section twice

Standard Tuning: (low to high) EADGBe


-------1----3----5--------5----8----3--------3----5----1--
--1-------------------------------------------------------
----------------------------------------------------------
----------------------------------------------------------
----------------------------------------------------------
----------------------------------------------------------

--1----5----3----1--------5----8----7--------7----8----8--
----------------------------------------------------------
----------------------------------------------------------
----------------------------------------------------------
----------------------------------------------------------
----------------------------------------------------------

--5--------1------------5----3--------8----10------------5--3--1--
------------------------------------------------------------------
------------------------------------------------------------------
------------------------------------------------------------------
------------------------------------------------------------------
------------------------------------------------------------------

-------1--------1----5----3--------1---------1--
--3-------------------------------------1-------
------------------------------------------------
------------------------------------------------
------------------------------------------------
------------------------------------------------


Last revised: 8/9/99

VGJam Tabs EarthBound - "Credits theme"
Tabs database last modified Tuesday, 01-Nov-2016 19:14:53 UTC.
Copyright © 1999 - 2016 VideoGameJam.com. All rights reserved.