VGJam Tabs EarthBound
EarthBound
"Eight Melodies (Sound Stone theme)" - Guitar tab
Platform(s):Super NES
Composed by:Keiichi Suzuki
Tabbed by:Michael Gum
Last modified:2002-08-29
Print it:Original file (.TXT)
Song: Eight Melodies (Sound Stone theme)
Game: Earthbound
Composer: Keiichi Suzuki
Tabbed by: Michael Gum (zztwizard@aol.com)

------------------------------
-------0---0-3----------------
---0-2---------2---2-4-0------
-0----------------------------
------------------------------
------------------------------

------------------------------
-----------3-2---2-3-3--------
-4-2-0---0--------------------
------------------------------
------------------------------
------------------------------

-------------------0----------
-0-------0-----3--------------
---0---0---2------------4-2-0-
------------------------------
------------------------------
------------------------------

------------------------------
------------------------------
---0---0-4-2---0---0----------
-2---------------4------------
------------------------------
------------------------------  
VGJam Tabs EarthBound - "Eight Melodies (Sound Stone theme)"
Tabs database last modified Tuesday, 01-Nov-2016 19:14:53 UTC.
Copyright © 1999 - 2016 VideoGameJam.com. All rights reserved.