VGJam Tabs EarthBound
EarthBound
"Ending: Photo album" - Bass tab
Platform(s):Super NES
Composed by:Keiichi Suzuki
Tabbed by:Jonathan Bouldin
Last modified:2000-11-15
Print it:Original file (.TXT)
Ending Theme 
Bass Tab
This song is pretty complex. You'll at the very least need a midi
of the song to learn the whole thing. This is a tab of the theme you hear
while looking at your photo album right before the credits.

Note: I used a MP3 recording to make this, so a MIDI might have a
      different bassline.


Intro (:00)
-------------------------------------------------------------
---------------------------------------------------------1---
---------------------------------9-8-------------------2---2-
-8---6---4-4--1--1---9-9-8-8-7-7-----8--6--4-4---1---0-------

------------
-----6--8---
---4--------
-2----------

Main Verse (:20)
-----------------------------------
--------------3-6------------------
----3-6-4-4-4----------------------  x3
-4---------------------------------

-----------------------------------
-----------3-4-6-------------------
-----3-6-4-------------------------
-4-4-------------------------------

(now the drums come in at :26 and these four riffs are reapeated
 till 1:17) 
-----------------------------------
--------------3-6------------------
----3-6-4-4-4----------------------  
-4---------------------------------

-----------------------------------
-----------------------------------
----3-6-4--------------------------  
-4--------1-2-3-4------------------

-----------------------------------
--------------3-6------------------
----3-6-4-4-4----------------------  
-4---------------------------------

-----------------------------------
-----------3-4-6-------------------
-----3-6-4-------------------------
-4-4-------------------------------

Bridge type part (1:17)
-----------------------------------
-----------------------------------
-------------3---4-4-4-4---4-------
-1-1-1-1-4-1---1---------1---1-2-3-

-----------------------------------
---------5-------------------------
-6-6---6---8-6---------------------
-----6---------6-4-4-4-4-3-1-1-1-1-

-----------------------------------
---------3---3-----------1-2-3-----
-----------------1-1-1-1-----------
-1-1-1-1---1---1-------------------

---------11-11-11-11-------------------
-4-4-4-4-------------------------------
---------------------6-6-6-6-6---------
-------------------------------1-2-3-4-

(it now goes back to the 'main verse' bass line)

The LONG Outro Type Part (2:00)
-1-1-1-1-1-----------------------------
-----------4-4-4-4-4-3-3-3-3-3-2-2-4-4-
---------------------------------------
---------------------------------------

------------------------------------------------------
------------------------------------------------------
-----------------4-4-4-4-7-7-7-7-9-9-9-9--10-10-10-10-
-4-4-4-4-7-7-7-7--------------------------------------

----------------------------
----------------------------
-8-8---------10-10----------
-----5-6-7-8-------7-8-9-10-

---------------------------------
---------------------------------
---------------------------------
-1-1-3-3-5-5-6-6-3-3-5-5-7-7-8-8-

--------------------------------
------7/------------------------
-8/-----------------------------
----1---1-1-1-1-1-3-3-5-5-7-7-8-

-------------------------------------------------------
-------------------------------------------------------
-5-5-5-5-5---3---5-5-5-5-5-------5-5-5-0-3-5-5---------
-----------5---5-----------2-3-5---------------1-2-3-5-

-----------------------------------
-----------------------------------
-10-10-10----8---------------------  
----------10---10-8-8-8---1-2-1----

-----------------------------------
-----------------------------------
-----------8-----------------------
-3-3-3--10---10-8-8-8---1-2-1------

---------------------------------------------------------------
---------------------------------------------------------------
-7-7-5-5-4-4---------------------------------------------7-7---
-------------7-7-5-5-4-4-3-3-2-2-0-0-1-1-2-2-3-3-4-4-5-5-----0-

-----------------
-----------------
-----------------
-0-0-0-3-0-0-0-3-

------------------------------------------------------------------
-----9---------------12-------------------9-----------------------
-------9----------------12------------7h9-------------------------
-7-7-----7-8-9-10-10-------10-9-8-7-7------7-8-9-10-10-10-10-9-8-7

---------------------------------------
-----9----------------12---------------
-------9-------------------------------
-7-7-----7-8-9-10--10----10--10-10-9-8-

-----------------------------------------
-----------------------------------------
-----------------------10-10-10-12-12-12-
-7-7-7-7-7-7-7-7-7-7-7-------------------

------------------------------------
-----------------------------6-7--9-
---------------7-7-7---------------- x2
-0-0-0-0-0-0-0-------0-0-0-0--------

-----------------------------------
-----------------------------------
-----------------------------------
-1-1-1-1-1-1-1-3-3-3-3-3-3-3-3---0-


VGJam Tabs EarthBound - "Ending: Photo album"
Tabs database last modified Tuesday, 01-Nov-2016 19:14:53 UTC.
Copyright © 1999 - 2016 VideoGameJam.com. All rights reserved.