VGJam Tabs EarthBound
EarthBound
"Giygas battle" - Guitar tab
Platform(s):Super NES
Composed by:Keiichi Suzuki
Tabbed by:Jonathan Bouldin
Last modified:2000-11-15
Print it:Original file (.TXT)
#-----------------------------------------------------------------------------#
#-- File created with Instab - http://www.pconline.com/~smcarey/instab.html --#
#-----------------------------------------------------------------------------#

Title: Gygas - Final Battle Guitar Tabs
Transcribed by: Jonathan Bouldin
Email: i-am-a@inorbit.com

-----------------------------------------|------------------------------------
-----------------------------------------|------------------------------------
-----------------------------------------|------------------------------------
-2----3----2----5/3----2----3----2----7/3|------------------------------------
-2----3----2----5/3----2----3----2----7/3|------------------------------------
-0----1----0----3/1----0----1----0----5/1|------------------------------------
 |--------------------------------------|  x2  (first riff)

---------------------------|--------------------------------------------------
---------------------------|--------------------------------------------------
---------------------------|--------------------------------------------------
-3-3-3-3-3/1---3-3-3-3-3--4|--------------------------------------------------
-3-3-3-3-3/1---3-3-3-3-3--4|--------------------------------------------------
-1-1-1-1-1-----1-1-1-1-1--2|--------------------------------------------------
 |------------------------|  x1  (second riff)

--------------------------------|---------------------------------------------
--------------------------------|---------------------------------------------
-----4---------8---------4-----8|---------------------------------------------
-3-3-4-6---3-3-8-8---3-3-4-6---8|---------------------------------------------
-3-3-2-6---3-3-6-8---3-3-2-6---6|---------------------------------------------
-1-1---4---1-1---6---1-1---4----|---------------------------------------------
 |-----------------------------|  x3  (third riff)

--------------------------------|---------------------------------------------
--------------------------------|---------------------------------------------
------3-4--5-----------3-4--5--6|---------------------------------------------
-6-3--3-4--5-5----6-3--3-4--5--6|---------------------------------------------
-6-3--1-2--3-5----6-3--1-2--3--4|---------------------------------------------
-4-1---------3----4-1-----------|---------------------------------------------
 |-----------------------------|  x1  (fourth riff)

------------------------------------------------------------------------------
------------------------------------------------------------------------------
-3--3--3-3-3--3---3----3--3--3-3-3--3--6--8------9----------------------------
-3--3--3-3-3--3---3-5--3--3--3-3-3--3--6--8------9----------------------------
-1--1--1-1-1--5---1-5--1--1--1-1-1--5--4--6------7*---------------------------
--------------------3---------------------------------------------------------
 |----------------------------------------| x2          *play last time only  

VGJam Tabs EarthBound - "Giygas battle"
Tabs database last modified Tuesday, 01-Nov-2016 19:14:53 UTC.
Copyright © 1999 - 2016 VideoGameJam.com. All rights reserved.