VGJam Tabs EarthBound
EarthBound
"Hotel" - Guitar tab
Platform(s):Super NES
Composed by:Keiichi Suzuki
Tabbed by:Chris Wilke
Last modified:2000-07-01
Print it:Original file (.TXT)
Hear it:MIDI file
Snes' Eartbound, A game with alot of good tunes. This is the Hotel theme.
eBGDAE.Tabbed by Chris Wilke.
4
4  Listen to game for tempo.
|----------------------|--||----------------------||-------------||-----
|----------------------|--||----------------------||-------------||-----
|---------------1--0---|--||------------------0---||---1--0------||-----
|------1--0------------|--||---------0--1--3------||---------3---||---3-
|------------3---------|--||------3---------------||-------------||-----
|---3------------------|--||---3------------------||-------------||-----


--------||-------------------------||----------------||-------||--------
--------||-------------------------||----------------||-------||--------
-0------||-------------------------||----------------||-------||--------
----3---||---1--3--1--0--1--0------||----------------||-------||------1-
--------||---------------------3---||---1------------||-------||--------
--------||-------------------------||------4--6--4---||---3---||---3----


--------------|--||----------------------||-------------||-------------|
--------------|--||----------------------||-------------||-------------|
-------1--0---|--||------------------0---||---1--0------||------0------|
-0------------|--||---------0--1--3------||---------3---||---3-----3---|
----3---------|--||------3---------------||-------------||-------------|
--------------|--||---3------------------||-------------||-------------|


|-------------------------||----------------||-------||-----------------
|-------------------------||----------------||-------||-----------------
|-------------------------||----------------||-------||---------------1-
|---1--3--1--0--1--0------||----------------||-------||------1--0-------
|---------------------3---||---1------------||-------||------------3----
|-------------------------||------4--6--4---||---3---||---3-------------


-----|--||----------------------||-------------||-------------||--------
-----|--||----------------------||-------------||-------------||--------
-0---|--||------------------0---||---1--0------||------0------||--------
-----|--||---------0--1--3------||---------3---||---3-----3---||---1--3-
-----|--||------3---------------||-------------||-------------||--------
-----|--||---3------------------||-------------||-------------||--------


-----------------||----------------||-------||----------------------|--|
-----------------||----------------||-------||----------------------|--|
-----------------||----------------||-------||---------------1--0---|--|
-1--0--1--0------||----------------||-------||------1--0------------|--|
-------------3---||---1------------||-------||------------3---------|--|
-----------------||------4--6--4---||---3---||---3------------------|--|


|----------------------||-------------||-------------||-----------------
|----------------------||-------------||-------------||-----------------
|------------------0---||---1--0------||------0------||-----------------
|---------0--1--3------||---------3---||---3-----3---||---1--3--1--0--1-
|------3---------------||-------------||-------------||-----------------
|---3------------------||-------------||-------------||-----------------


--------||----------------|
--------||----------------|
--------||----------------|
-0------||----------------|
----3---||---1------------|
--------||------4--6--4---|


VGJam Tabs EarthBound - "Hotel"
Tabs database last modified Tuesday, 01-Nov-2016 19:14:53 UTC.
Copyright © 1999 - 2016 VideoGameJam.com. All rights reserved.