VGJam Tabs EarthBound
EarthBound
"Main theme" - Guitar tab
Platform(s):Super NES
Composed by:Keiichi Suzuki
Tabbed by:zenithgeek
Last modified:2002-11-10
Print it:Original file (.TXT)
Hear it:MIDI file
Gtr I (E A D G B E) - 'Untitled'

 4/4
  Gtr I
  Q Q Q H Q Q H Q Q W Q Q Q H Q Q H Q Q W H. Q H Q Q H H H Q E E H. Q H

|-------3-----2-----3-------3-----0-----2-2----3-----2---0-2-----3----3-|
|-------0-0-3-3---0-0---0---0-0-3-2-2-3-3-1--0-0---0-3-3-0-3-0---0----0-|
|---0-2-0-----2-2---0-0---2-0-----2-----2-2----0-0---2---0-2---2-0----0-|
|-0-----0-----0-----0-------0-----2-----0-0----0-----0---2-0-----0--2-0-|
|-------2-----0-----2-------2-----0-----0-0----2-----0---2-0-----2----2-|
|-------3-----------3-------3------------------3---------0-------3----3-|


  Q Q H Q Q W +Q

|-----2-----3-(3)----|
|---0-3-----0-(0)----|
|-0---2-0---0-(0)----|
|-----0---4-0-(0)----|
|-----0-----2-(2)----|
|-----------3-(3)----|

VGJam Tabs EarthBound - "Main theme"
Tabs database last modified Tuesday, 01-Nov-2016 19:14:53 UTC.
Copyright © 1999 - 2016 VideoGameJam.com. All rights reserved.