VGJam Tabs EarthBound
EarthBound
"New Age Retro Hippie battle" - Guitar tab
Platform(s):Super NES
Composed by:Keiichi Suzuki
Tabbed by:Deezer
Last modified:1999-07-08
Print it:Original file (.TXT)
Hear it:MIDI file
#----------------------------------PLEASE NOTE---------------------------------#
#This file is the author's own work and represents their interpretation of the #
#song. You may only use this file for private study, scholarship, or research. #
#------------------------------------------------------------------------------#

EarthBound (Super NES)
"New Age Retro Hippie battle"

Originally composed by: Chuck Berry
------------------------------------------------------------------------------
Tabbed by: Deezer (deezer@usa.net)
For http://www.kontek.net/vgjam/
------------------------------------------------------------------------------

Standard Tuning: (low to high) EADGBe


----------0--
--1---2------
-------------
-------------
-------------
-------------


--5-5-5-5-5-2-0-2-----------2-0-2-|-5-2-0-2-5-2-0-2--8--
------------------5-5-5-5-5-------|---------------------
----------------------------------|---------------------
----------------------------------|---------------------
----------------------------------|---------------------
----------------------------------|---------------------


--10--10--10--10---10-10--10--10--5-5-5-2-5-5-2-5--
---------------------------------------------------
---------------------------------------------------
---------------------------------------------------
---------------------------------------------------
---------------------------------------------------


--8-5---------------------------------------------------------------
------8-4-------4--4--4-3-1-----------------------------------------
----------7-5---------------2--2-0----------------2-0---------------
--------------7--------------------1-0--------1-2-----2-0-----------
---------------------------------------3-0----------------3-0-------
-------------------------------------------3---------------------0--


|-----------------------------------|
|-----------------------------------|
|-----------------------------------|
|--2-2-4-2-2-2-4-2-2-2-4-2-5-2-4-2--|
|-----------------------------------|
|-----------------------------------| x2


-------------------------------------------------------------------
-------------------------------------------------------------------
--2-2-4-2-2-2-4-2-2-2-4-2-5-2-4-2----------------------------------
----------------------------------2-2-4-2-2-2-4-2-2-2-4-2-5-2-4-2--
-------------------------------------------------------------------
-------------------------------------------------------------------


-------------------------------------------------------------------
--0-0-2-0-0-0-2-0--------------------------------------------------
------------------2-2-4-2-2-2-4-2----------------------------------
----------------------------------2-2-4-2-2-2-4-2-5-2-4-2-2-2-4-2--
-------------------------------------------------------------------
-------------------------------------------------------------------


Last revised: 7/8/99

VGJam Tabs EarthBound - "New Age Retro Hippie battle"
Tabs database last modified Tuesday, 01-Nov-2016 19:14:53 UTC.
Copyright © 1999 - 2016 VideoGameJam.com. All rights reserved.