VGJam Tabs EarthBound
EarthBound
"Onett" - Guitar tab
Platform(s):Super NES
Composed by:Keiichi Suzuki
Tabbed by:Chris Wilke
Last modified:2000-07-01
Print it:Original file (.TXT)
Hear it:MIDI file
Heres is earthbound's(snes)Onett theme.eBGDAE.Tabbed by Chris Wilke.

  4
  4  listen to midi or game for tempo.
|-------|--||---0--3--5--0---||---0--3--5--0--0------------||---0--3--5-
|-------|--||----------------||------------------3--1--3---||-----------
|-------|--||----------------||----------------------------||-----------
|-------|--||----------------||----------------------------||-----------
|-------|--||----------------||----------------------------||-----------
|-------|--||----------------||----------------------------||-----------


-0---||---0--3--5--0------------||---------0------||---------0------------|
-----||---------------3--1--3---||---1--3---------||---1--3---------------|
-----||-------------------------||------------2---||------------2--2--0---|
-----||-------------------------||----------------||----------------------|
-----||-------------------------||----------------||----------------------|
-----||-------------------------||----------------||----------------------|


|---------0------||---------0------------||---1--0--1-------------------
|---1--3---------||---1--3---------------||------------3--3--3--3--3--3-
|------------2---||------------2--2--0---||-----------------------------
|----------------||----------------------||-----------------------------
|----------------||----------------------||-----------------------------
|----------------||----------------------||-----------------------------


-3--3--3--3--3--3--1--1--1---||---0-----0--------------------1--1--1--1-
-----------------------------||------3-----1--1--1--1--1--1-------------
-----------------------------||-----------------------------------------
-----------------------------||-----------------------------------------
-----------------------------||-----------------------------------------
-----------------------------||-----------------------------------------


-1--1--1--1--1---||---1--0--1--3--3--3--3--3--3--5--7--7--7--7--7--7---|
-----------------||----------------------------------------------------|
-----------------||----------------------------------------------------|
-----------------||----------------------------------------------------|
-----------------||----------------------------------------------------|
-----------------||----------------------------------------------------|


|---8--10-12-----------------------------------------------||---0--3--5-
|------------10-10-10-10-10-10-10-10-10-10-10-10-10-10-10--||-----------
|----------------------------------------------------------||-----------
|----------------------------------------------------------||-----------
|----------------------------------------------------------||-----------
|----------------------------------------------------------||-----------


-0---||---0--3--5--0--0------------||---0--3--5--0---||---0--3--5--0----
-----||------------------3--1--3---||----------------||---------------3-
-----||----------------------------||----------------||-----------------
-----||----------------------------||----------------||-----------------
-----||----------------------------||----------------||-----------------
-----||----------------------------||----------------||-----------------


--------||---------0------||---------0------------||---------0------||-----
-1--3---||---1--3---------||---1--3---------------||---1--3---------||---1-
--------||------------2---||------------2--2--0---||------------2---||-----
--------||----------------||----------------------||----------------||-----
--------||----------------||----------------------||----------------||-----
--------||----------------||----------------------||----------------||-----


----0------------||----------------||---0-----0------------||---0-------
-3---------------||------0--1--3---||------1-----3--1--3---||------1----
-------2--2--0---||---2------------||----------------------||---------2-
-----------------||----------------||----------------------||-----------
-----------------||----------------||----------------------||-----------
-----------------||----------------||----------------------||-----------


--------|--||----------------||---0-----0------------||---0---------------|
--------|--||------0--1--3---||------1-----3--1--3---||------1-----1--3---|
-0------|--||---2------------||----------------------||---------2---------|
----2---|--||----------------||----------------------||-------------------|
--------|--||----------------||----------------------||-------------------|
--------|--||----------------||----------------------||-------------------|


|---0-----0------|--|--|--|--||---0--3--5--0---||---0--3--5--0--0-------
|------1-----3---|--|--|--|--||----------------||------------------3--1-
|----------------|--|--|--|--||----------------||-----------------------
|----------------|--|--|--|--||----------------||-----------------------
|----------------|--|--|--|--||----------------||-----------------------
|----------------|--|--|--|--||----------------||-----------------------


-----||---0--3--5--0---||---0--3--5--0------------||---------0------||-----
-3---||----------------||---------------3--1--3---||---1--3---------||---1-
-----||----------------||-------------------------||------------2---||-----
-----||----------------||-------------------------||----------------||-----
-----||----------------||-------------------------||----------------||-----
-----||----------------||-------------------------||----------------||-----


----0------------||---------0------||---------0------------||---1--0--1-
-3---------------||---1--3---------||---1--3---------------||-----------
-------2--2--0---||------------2---||------------2--2--0---||-----------
-----------------||----------------||----------------------||-----------
-----------------||----------------||----------------------||-----------
-----------------||----------------||----------------------||-----------


-------------------3--3--3--3--3--3--1--1--1---||---0-----0-------------
-3--3--3--3--3--3------------------------------||------3-----1--1--1--1-
-----------------------------------------------||-----------------------
-----------------------------------------------||-----------------------
-----------------------------------------------||-----------------------
-----------------------------------------------||-----------------------


-------1--1--1--1--1--1--1--1--1---||---1--0--1--3--3--3--3--3--3--5--7-
-1--1------------------------------||-----------------------------------
-----------------------------------||-----------------------------------
-----------------------------------||-----------------------------------
-----------------------------------||-----------------------------------
-----------------------------------||-----------------------------------


-7--7--7--7--7---||---8--10-12------------------------------------------
-----------------||------------10-10-10-10-10-10-10-10-10-10-10-10-10-10
-----------------||-----------------------------------------------------
-----------------||-----------------------------------------------------
-----------------||-----------------------------------------------------
-----------------||-----------------------------------------------------


-----||---0--3--5--0---||---0--3--5--0--0------------||---0--3--5--0---|
-10--||----------------||------------------3--1--3---||----------------|
-----||----------------||----------------------------||----------------|
-----||----------------||----------------------------||----------------|
-----||----------------||----------------------------||----------------|
-----||----------------||----------------------------||----------------|


|---0--3--5--0------------||---------0------||---------0------------||-----
|---------------3--1--3---||---1--3---------||---1--3---------------||---1-
|-------------------------||------------2---||------------2--2--0---||-----
|-------------------------||----------------||----------------------||-----
|-------------------------||----------------||----------------------||-----
|-------------------------||----------------||----------------------||-----


----0------||---------0------------||----------------||---0-----0-------
-3---------||---1--3---------------||------0--1--3---||------1-----3--1-
-------2---||------------2--2--0---||---2------------||-----------------
-----------||----------------------||----------------||-----------------
-----------||----------------------||----------------||-----------------
-----------||----------------------||----------------||-----------------


-----||---0---------------|--||----------------||---0-----0------------|
-3---||------1------------|--||------0--1--3---||------1-----3--1--3---|
-----||---------2--0------|--||---2------------||----------------------|
-----||---------------2---|--||----------------||----------------------|
-----||-------------------|--||----------------||----------------------|
-----||-------------------|--||----------------||----------------------|


|---0---------------||---0-----0------|
|------1-----1--3---||------1-----3---|
|---------2---------||----------------|
|-------------------||----------------|
|-------------------||----------------|
|-------------------||----------------|


VGJam Tabs EarthBound - "Onett"
Tabs database last modified Tuesday, 01-Nov-2016 19:14:53 UTC.
Copyright © 1999 - 2016 VideoGameJam.com. All rights reserved.