VGJam Tabs EarthBound
EarthBound
""Strange House" music" - Guitar tab
Platform(s):Super NES
Composed by:Keiichi Suzuki
Tabbed by:Thomas McManus
Last modified:1999-11-26
Print it:Original file (.TXT)
Hear it:MIDI file
Game: EarthBound
Song: ? [I call it "Strange House music"]
Composer: ?
Tabbed by: Thomas McManus (tom0015@hotmail.com)


I can't figure out one part, it goes too fast. Any help 
would A) be appreciated, and B) finish the tab! :)


part A:


e-3p2-3p2-3p2-3p2-----------3p2-3p2-3p2-3p2-6-5-3-
B-----------------3-----1~------------------------
G-------------------3-2---------------------------
D-------------------------------------------------
A-------------------------------------------------
E-------------------------------------------------


part B:


e-----------------------------------------------------
B-5p4-5p4-5p4-5p4---1~--5p4-5p4-5p4-5p4-5p4-5p4-6-7-8-
G-----------------2-----------------------------------
D-----------------------------------------------------
A-----------------------------------------------------
E-----------------------------------------------------



repeat A; then (I could only catch the last few notes):


e--------------------------------------------------------
B------------------------------------------------2-3-4-5-
G--------------------------------------------------------
D--------------------------------------------------------
A--------------------------------------------------------
E--------------------------------------------------------


then repeat from beginning.

VGJam Tabs EarthBound - ""Strange House" music"
Tabs database last modified Tuesday, 01-Nov-2016 19:14:53 UTC.
Copyright © 1999 - 2016 VideoGameJam.com. All rights reserved.