VGJam Tabs EarthBound
EarthBound
"Store" - Guitar tab
Platform(s):Super NES
Composed by:Keiichi Suzuki
Tabbed by:Chris Wilke
Last modified:2000-07-01
Print it:Original file (.TXT)
Hear it:MIDI file
Another for snes' Earthbound.Its the funky Store Theme.Hopefully, I will be 
able to tab more for VGJam.eBGDAE. Tabbed by Chris Wilke.
4
4   listen to midi or game for tempo.

|---------3--------3---------||---3--------3--1--0---------||-----------
|------0--------0--------0---||---------0-----------4--3---||---1--1--3-
|---3--------3--------3------||------3---------------------||-----------
|----------------------------||----------------------------||-----------
|----------------------------||----------------------------||-----------
|----------------------------||----------------------------||-----------


----0--8---||---6--5-----0------||---7--6--7--5--3--7---||---6--7--5--3-
-4---------||---------4-----1---||----------------------||--------------
-----------||-------------------||----------------------||--------------
-----------||-------------------||----------------------||--------------
-----------||-------------------||----------------------||--------------
-----------||-------------------||----------------------||--------------


-5--3--5---||---7--8---------||------0-----0---------||-----------------
-----------||---------7--8---||---------4-----0--1---||------------0--3-
-----------||----------------||---8------------------||---0-----3-------
-----------||----------------||----------------------||------4----------
-----------||----------------||----------------------||-----------------
-----------||----------------||----------------------||-----------------


----3---||---1-----0-----------0------||---------------0--8---||---6--5-
-0------||---------------3--4---------||---1--1--3--4---------||--------
--------||------0-----0-----------0---||----------------------||--------
--------||----------------------------||----------------------||--------
--------||----------------------------||----------------------||--------
--------||----------------------------||----------------------||--------


-3--0---||---5--5--7--5---||---3--2--3--5--3--0---||---------3---------|
--------||----------------||----------------------||---3--3-----4--3---|
--------||----------------||----------------------||-------------------|
--------||----------------||----------------------||-------------------|
--------||----------------||----------------------||-------------------|
--------||----------------||----------------------||-------------------|


|---------8---|
|---1---------|
|------0------|
|-------------|
|-------------|
|-------------|

VGJam Tabs EarthBound - "Store"
Tabs database last modified Tuesday, 01-Nov-2016 19:14:53 UTC.
Copyright © 1999 - 2016 VideoGameJam.com. All rights reserved.