VGJam Tabs Earthworm Jim 2
Earthworm Jim 2
"Continue" - Guitar, Bass tab
Platform(s):Super NES
Tabbed by:jiwestone
Last modified:2002-04-10
Print it:Original file (.TXT)
     Earthworm Jim 2
        CONTINUE

Intro Electric Guitar:

          T
        |---|
        |---|
        |---|
        |-\-|
        |-\-|
        |-\-|

Electric Guitar:
|-----------------------------------------------------------|
|-----------------------------------------------------------|
|----------------------------------------------4-2-4-2----2-|
|-------------------------------5-----5-----5--2-0-2-0--4-0-|
|-2-----2-----2--5-----5-----5--3-3-3-3-3-3-3-----------2---|
|-0-0-0-0-0-0-0--3-3-3-3-3-3-3------------------------------|
|   x x   x x      x x   x x      x x   x x                 |
|                                                           |
|Bass Guitar:                                               |
|-----------------------------------------------------------|
|-----------------------------------------------------------|
|----------------------------------------------7-5-7-5----5-|
|-0-0-0-0-0-0-0--3-3-3-3-3-3-3--8-8-8-8-8-8-8-----------7---|

/----------------------\
|  Symbols:            |
|                      |
|  \ = Side Down       |
|  x = Munted Note     |
|  T = Right Hand Tap  |
|                      |
\----------------------/

VGJam Tabs Earthworm Jim 2 - "Continue"
Tabs database last modified Tuesday, 01-Nov-2016 19:14:53 UTC.
Copyright © 1999 - 2016 VideoGameJam.com. All rights reserved.