VGJam Tabs F-Zero
F-Zero
"Big Blue" - Bass tab
Platform(s):Super NES
Composed by:Yumiko Kameya, Naoto Ishida
Tabbed by:Walter Strömberg
Last modified:2000-08-18
Print it:Original file (.TXT)
Hear it:MIDI file
Game: F-Zero
Song: Big Blue
Composer: Unknown
Tabbed by: Walter Str\mberg (supervisor@chello.se)


  Beginning, 2 times:            Direct pause:
G|------------------------|    G|-------------------|
D|------------------------|    D|-------------------|
A|------------------------|    A|---------4/3-------|
E|--6----6-4----4----4-6--|    E|-6--1/4-------4/6--|


  Continue:                      Another pause:
G|------------------------|    G|-------------------|
D|------------------------|    D|-------------------|
A|------------------------|    A|-------------4/3---|
E|--6----6-4----4----4-6--|    E|--2-4/6---2--------|


  Ending the intro:
G|---------------------------|
D|---------------------------|
A|---------------------------|
E|--6----6-4----4---4-1~~~---|


  Now the long cool part with the synth music playing:
G|----------------------------------------------------|
D|----------------------------------------------------|
A|----------------------------------------------------|
E|--6-6-6-6-6-6-6-6-6-6-6-6-6-6-6-6--4-4-4-4---4-4-4--|


  Short pause:
G|---------------|
D|---------------|
A|--4-3---4-3----|
E|------4-----4--|


  Continue like before:
G|----------------------------------------------------|
D|----------------------------------------------------|
A|----------------------------------------------------|
E|--6-6-6-6-6-6-6-6-6-6-6-6-6-6-6-6--4-4-4-4---4-4-4--|


  Another pause:
G|---------------|
D|---------------|
A|-----4-3--4-3--|
E|--4------------|


  Then play this when the synth is flickering:
G|------------------------------------------------|
D|------------------------------------------------|
A|------------------------------------------------|
E|--2--2----2--4----4-4----4-2--2----2--1----1-1--|


  And this when it returns to normal playing:
G|------------------------------------------------|
D|------------------------------------------------|
A|------------------------------------------------|
E|--1--2-2-2-2---2-2-2--4-4-4-4----4-4-4--6~~~~~--|


G|-----------------------------------------------|
D|-----------------------------------------------|
A|-----------------------------------------------|
E|--6/4/2---2-2-2-2----2-2-2--2-2-2-2----2-2-2---|



  Play all these: 2 TIMES!
G|---------------------------------------|
D|---------------------------------------|
A|---------------------------------------|
E|--1-1-1-1----1-1-1--1-1-1-1----1-1-1---|

G|---------------------------------------|
D|---------------------------------------|
A|---------------------------------------|
E|--2-2-2-2----2-2-2--2-2-2-2----2-2-2---|

G|---------------------------------------|
D|---------------------------------------|
A|-----------------------------4-3-------|
E|--1-1-1-1----1-1-1-----1-4-1------4-3--|

G|---------------------------------------|
D|---------------------------------------|
A|---------------------------------------|
E|--2-2-2-2----2-2-2--2-2-2-2----2-2-2---|



  Then end it and start over!
G|----------------------------------|
D|----------------------------------|
A|----------------------------------|
E|--1-1-1-1----1-1-1----1-4----1-4--|



\ Walter Str\mberg, Stockholm
  Tabbed 28th of July 2000

VGJam Tabs F-Zero - "Big Blue"
Tabs database last modified Tuesday, 01-Nov-2016 19:14:53 UTC.
Copyright © 1999 - 2016 VideoGameJam.com. All rights reserved.