VGJam Tabs F-Zero
F-Zero
"Mute City" - Guitar tab
Platform(s):Super NES
Composed by:Yumiko Kameya, Naoto Ishida
Tabbed by:Deezer
Last modified:2000-11-14
Print it:Original file (.TXT)
Hear it:MIDI file
#----------------------------------PLEASE NOTE--------------------------------#
#This file is the author's own work and represents their interpretation of the#
#song. You may only use this file for private study, scholarship, or research.#
#-----------------------------------------------------------------------------#

F-Zero (Super NES)
"Mute City"

Originally composed by: ?
------------------------------------------------------------------------------
Tabbed by: Deezer (deezer@usa.net)
For http://www.kontek.net/vgjam/
------------------------------------------------------------------------------

Symbols used:
 h = hammer-on
 / = slide up
 p = pull-off

Standard Tuning - (low to high) EADGBe


Intro:
======

|---------------------------------------------------------------------|
|-------------------6-6-6-6-6-6-6-6-6-8-8-8-8-8-8-8-8-6-6-6-6-6-6-6-6-|
|-5-5-5-5-5-5-5-5-5---------------------------------------------------|
|---------------------------------------------------------------------|
|---------------------------------------------------------------------|
|---------------------------------------------------------------------| x2

Then:

-------------------------------------------------------------------
--18----16----15--------15----16--18----16----15-------------------
------------------17------------------------------17---------------
-------------------------------------------------------------------
-------------------------------------------------------------------
-------------------------------------------------------------------

--------------15----------18--16----15--------15-----------------------------
-13h15h16/18--------18--------------------18--------18----16--15-------------
--------------------------------------------------------------------17----15-
-----------------------------------------------------------------------------
-----------------------------------------------------------------------------
-----------------------------------------------------------------------------

Repeat the stuff after the intro, and then play:

--------------------------------------------
---------------------13-----------------15--
--14--------12-14-15-----------12-14-15-----
--------------------------------------------
--------------------------------------------
--------------------------------------------

----------------------------------
--------15-16-----------15-16-18--
--14-15--------------15-----------
----------------------------------
----------------------------------
----------------------------------

----------------------------------
------------------------------14--
-----------10-----------10-13-----
-----11-13-----------11-----------
--11------------------------------
----------------------------------

-----------13--------------13-
--------14--------------------
-----13-----------------13----
--11-----------------11-------
------------------------------
------------------------------

-14---13--11-------------------------------------------------------------------11-
--------------14---12--14--11----------------------------------------------11-----
--------------------------------13--11--10----------------10--11-------10---------
---------------------------------------------13--11--13-----------13--------------
----------------------------------------------------------------------------------
----------------------------------------------------------------------------------

--14p12p10----------
----------14p12p10--
--------------------
--------------------
--------------------
--------------------

Back to intro.


Last revised: 11/14/2000

VGJam Tabs F-Zero - "Mute City"
Tabs database last modified Tuesday, 01-Nov-2016 19:14:53 UTC.
Copyright © 1999 - 2016 VideoGameJam.com. All rights reserved.