VGJam Tabs Final Fantasy II
Final Fantasy II
"Airship" - Guitar tab
Platform(s):Super NES
Composed by:Nobuo Uematsu
Tabbed by:Hayashida
Last modified:2002-07-16
Print it:Original file (.TXT)
Hear it:MIDI file
SNES- Final Fantasy IV- Airship Theme (Guitar part)
By: Hayashida
Hey, Hayashida here. This is my first tab from one of my favorite games,
Final Fantasy IV!!! Enjoy! (you can try it faster so it will be more fun,
it is very easy)

e---3--1-----------------------------
B---------4--3--1--------1--3-1~~~--
G-0-----------------3----------------

e-------------------0--------------0-
B----1~~~--------3-------13~-1-3----
G-3--------------------2-------------

e-------------0-3-2-0------2---------
B---1-3~-1-3---------3-2-------------
G-1----------------------------------

Not too hard, eh?
And then play it again and keep going for eternity. that, or until you wanna stop... :) 

VGJam Tabs Final Fantasy II - "Airship"
Tabs database last modified Tuesday, 01-Nov-2016 19:14:53 UTC.
Copyright © 1999 - 2016 VideoGameJam.com. All rights reserved.