VGJam Tabs Final Fantasy II
Final Fantasy II
"Battle theme" - Guitar, Bass tab
Platform(s):Super NES
Composed by:Nobuo Uematsu
Tabbed by:Ryan C. Reynolds
Last modified:2000-03-08
Print it:Original file (.TXT)
Hear it:MIDI file
#----------------------------------PLEASE NOTE--------------------------------#
#This file is the author's own work and represents their interpretation of the#
#song. You may only use this file for private study, scholarship, or research.#
#-----------------------------------------------------------------------------#
#-- File created with Instab - http://www.pconline.com/~smcarey/instab.html --#
#-----------------------------------------------------------------------------#

Title: Final Fantasy 2 Battle Music
Transcribed by: Ryan C. Reynolds
Email: morbol@aol.com

Here is the battle music for FF2. I included the lead and bass. I recommend
listening to the midi to gain a further understanding of the timing.
It's a good song, and pretty fun to play, but the ending part is tricky!

Riff Ax1:

-------------------------------|----------------------------------------------
-------------------------------|----------------------------------------------
-------------------------------|----------------------------------------------
-------------------------------|-----------------9-7--------------------------
-------------------------------|--------------------10-8-7--------------------
-------------------------------|---------------------------10-8-7-------------


-2---2---2---2---2---2---0---0-|-2---2---2---2---2---2---0---0----------------
-------------------------------|----------------------------------------------
-------------------------------|----------------------------------------------
-------------------------------|----------------------------------------------


-5--------------8--------------|-13------12------10------8--------------------
-------------------------------|----------------------------------------------
-------------------------------|----------------------------------------------
-------------------------------|----------------------------------------------
-------------------------------|----------------------------------------------
-------------------------------|----------------------------------------------


----10------10------9-------9--|-----7-------9-------10------11---------------
-------------------------------|----------------------------------------------
-8------8-------7-------7------|-5-------7-------8-------9--------------------
-------------------------------|----------------------------------------------


-7h8p7-5-7----------------8----|-10-------------------------------------------
-------------------------------|-----------------12---------------------------
-------------------------------|-------------------------12-------------------
-------------------------------|----------------------------------------------
-------------------------------|----------------------------------------------
-------------------------------|----------------------------------------------


-----12------12------12------12|-----12------12------12------12---------------
-------------------------------|----------------------------------------------
-10------10------10------10----|-10------10------10------10-------------------
-------------------------------|----------------------------------------------


-------------------------------|----------------------------------------------
-------------------------------|----------------------------------------------
-------------------------------|----------------------------------------------
-----------------5---4---------|----------------------------------------------
---------7---6---------------7-|-7--------------------------------------------
-5---8-------------------------|---------7---8-------4---5---1----------------


-2---2---2---2---2---2---0---0-|-2---2---2---2---2---2---0---0----------------
-------------------------------|----------------------------------------------
-------------------------------|----------------------------------------------
-------------------------------|----------------------------------------------


-5---------------8-------------|-13------12------10------8--------------------
-------------------------------|----------------------------------------------
-------------------------------|----------------------------------------------
-------------------------------|----------------------------------------------
-------------------------------|----------------------------------------------
-------------------------------|----------------------------------------------


-----10------10------9-------9-|-----7-------9-------10------11---------------
-------------------------------|----------------------------------------------
-8-------8-------7-------7-----|-5-------7-------8-------9--------------------
-------------------------------|----------------------------------------------


-7h8p7-5-7---------------8-----|-10--------------12------13-------------------
-------------------------------|----------------------------------------------
-------------------------------|----------------------------------------------
-------------------------------|----------------------------------------------
-------------------------------|----------------------------------------------
-------------------------------|----------------------------------------------


-----12------12------12------12|-----12------12------12------12---------------
-------------------------------|----------------------------------------------
-10------10------10------10----|-10------10------10------10-------------------
-------------------------------|----------------------------------------------

 Riff Bx2                                                                     

-15--------------------13------|-12-------------------------------------------
----------------15-------------|----------------------------------------------
-------------------------------|----------------------------------------------
-------------------------------|----------------------------------------------
-------------------------------|----------------------------------------------
-------------------------------|----------------------------------------------


-------------------------------|------------5--------------5------------------
----------------5-----------5--|----------------5------5----------------------
-3----------3------------------|-3-----------------------------3--------------
-------------------------------|----------------------------------------------


-------------------------------|-15------13------12------10-------------------
--------10------12------13-----|----------------------------------------------
-------------------------------|----------------------------------------------
-------------------------------|----------------------------------------------
-------------------------------|----------------------------------------------
-------------------------------|----------------------------------------------


-------------------------------|-------------------------5---4----------------
----------------5-----------5--|---------5------------------------------------
-3----------3------------------|-3---3-------3-------3------------------------
-------------------------------|----------------------------------------------


-12----------------------------|----------------------------------------------
----------------12------15-----|-13-------------------------------------------
-------------------------------|----------------------------------------------
-------------------------------|----------------------------------------------
-------------------------------|----------------------------------------------
-------------------------------|----------------------------------------------


-2----------2------------------|-2-------2---2-------2------------------------
----------------2-----------2--|-------------------------2--------------------
-------------------------------|----------------------------------------------
-------------------------------|----------------------------------------------

                                  Riff B ending 1:
-------------------------------|-12--------------12------13-------------------
--------12------13------15-----|---------15-----------------------------------
-------------------------------|----------------------------------------------
-------------------------------|----------------------------------------------
-------------------------------|----------------------------------------------
-------------------------------|----------------------------------------------


-2----------2------------------|-2---2-------5-------4---9---7----------------
----------------2-----------2--|---------2------------------------------------
-------------------------------|----------------------------------------------
-------------------------------|----------------------------------------------

 Riff B ending 2:                Riff Cx1

-12----------------------------|----------------------------------------------
---------15------13------12----|----------------------------------------------
-------------------------------|----------------------------------------------
-------------------------------|-7---------------9----------------------------
-------------------------------|----------------------------------------------
-------------------------------|----------------------------------------------


-2---2-------5-------4---9---7-|----------------------------------------------
---------2---------------------|----------------------------------------------
-------------------------------|----------------------------------------------
-------------------------------|-1---1---1---1---1---1---1---1----------------


-------------------------------|----------------------------------------------
-------------------------------|-8---------------10---------------------------
---------7-------9-------10----|----------------------------------------------
-10----------------------------|----------------------------------------------
-------------------------------|----------------------------------------------
-------------------------------|----------------------------------------------


-------------------------------|----------------------------------------------
-------------------------------|----------------------------------------------
-------------------------------|----------------------------------------------
-1---1---1---1---1---1---1---1-|-1---1---1---1---1---1---1---1----------------


-7-------8-------10------12----|-22-19----------------------------------------
-------------------------------|------21-18-21-18-----------------------------
-------------------------------|-----------------19-16-19-16------------------
-------------------------------|----------------------------18-15-18-15-------
-------------------------------|---------------------------------------17-14--
-------------------------------|----------------------------------------------


-------------------------------|----------------------------------------------
-------------------------------|----------------------------------------------
-------------------------------|-2~let ring through next measure--------------
-1---1---1---1---1---1---1---1-|----------------------------------------------


----------------------------------------
----------------------------------------
----------------------------------------
----------------------------------------
-17-14------------------------------5-2-
------16-13-16-13-10-7-10-7-4-1-4-1-5-2-

VGJam Tabs Final Fantasy II - "Battle theme"
Tabs database last modified Tuesday, 01-Nov-2016 19:14:53 UTC.
Copyright © 1999 - 2016 VideoGameJam.com. All rights reserved.