VGJam Tabs Final Fantasy II
Final Fantasy II
"Dancing Calbrena" - Guitar, Bass tab
Platform(s):Super NES
Composed by:Nobuo Uematsu
Tabbed by:Blackbird
Last modified:2000-01-23
Print it:Original file (.TXT)
Hear it:MIDI file
#-------------------------------PLEASE NOTE------------------------------------#
#This file is the author's own work and represents their interpretation of the #
#song. You may only use this file for private study, scholarship, or research. #
#------------------------------------------------------------------------------#

Title: Dancing Calbrena (Final Fantasy II/IVj)
Composer: Nobuo Uematsu (I assume...)
Tablature by Blackbird (blk_bird@yahoo.com)
From a MIDI sequence by Paul

Lead Guitar (filling in for flute)
==================================
E |-------|-------|-------------|-------------|-------|-------|-------------|
B |-------|-------|-3-2-3-2-3-2-|-3-2-0-----2-|-------|-------|-5-4-5-4-5-4-|
G |-------|-------|-------------|-------1-4---|-------|-------|-------------|
D |-------|-------|-------------|-------------|-------|-------|-------------|
A |-------|-------|-------------|-------------|-------|-------|-------------|
E |-------|-------|-------------|-------------|-------|-------|-------------|

|-------------|-9--8-7-6-5-|-4-3-2-------|-------------|---------|----------|
|-4-4-4-4-5-7-|------------|-------6-4-4-|-2-4-4-4-7-6-|-4--4----|-2--4---7-|
|-------------|------------|-------------|-------------|---------|----------|
|-------------|------------|-------------|-------------|---------|----------|
|-------------|------------|-------------|-------------|---------|----------|
|-------------|------------|-------------|-------------|---------|----------|

|---------|-6-7-4-6-7-4-|-12------|-9--8-7-6-5-|-4-3-2-0-0---|
|-4--4----|-------------|---------|------------|-----------3-|
|---------|-------------|---------|------------|-------------|
|---------|-------------|---------|------------|-------------|
|---------|-------------|---------|------------|-------------|
|---------|-------------|---------|------------|-------------|

|-----0---2-0-|-0-------|--------2-|-0-------|-----4---7-4-|-12------|
|-2-3---3-----|----3----|-2--3-----|----3----|-1-2---2-----|---------|
|-------------|---------|----------|---------|-------------|---------|
|-------------|---------|----------|---------|-------------|---------|
|-------------|---------|----------|---------|-------------|---------|
|-------------|---------|----------|---------|-------------|---------|

Rhythm Guitar (in place of organ)
================================
Play the D# once, then repeat the other two measures, twice each, over
and over.

E |---||---------------------||---------------------||
B |---||------0--0-0--0--0-0-||------0--0-0--0--0-0-||
G |---||*-----1--1-1--1--1-1*||*-----1--1-1--1--1-1*||
D |-1-||*-----1--1-1--1--1-1*||*-----2--2-2--2--2-2*||
A |---||---------------------||---------------------||
E |---||-4-------------------||-0-------------------||

Bass
====
G |---------|-1-------|--------|---------|---------|-1-------|--------|-4------|
D |------1--|------4--|-2------|---------|------1--|------4--|-2------|--------|
A |---------|---------|--------|---------|---------|---------|--------|--------|
E |-4-------|---------|--------|-0----2--|-4-------|---------|--------|--------|

Play 3x
|----------|----------|--------|---------|----------|----------|---------|---------|
|*----0-1--|----4---3-|-2------|---------|-----0-1--|-------1--|-4----3--|-2------*|
|*---------|----------|--------|---------|----------|----2-----|---------|--------*|
|-4--------|-4--------|--------|-0----2--|-4--------|-4--------|---------|----0----|

------------------------------------------------------------------
Ewen "Blackbird" Cluney                         blk_bird@yahoo.com
Blackbird's Domain            http://www.geocities.com/tokyo/6127/
Knight Kevlar of the Immortal Frog        Silver Knight of Mihoshi
              "Be nice to me; I might just develop 
             psychokinetic powers and destroy Tokyo!"
------------------------------------------------------------------

VGJam Tabs Final Fantasy II - "Dancing Calbrena"
Tabs database last modified Tuesday, 01-Nov-2016 19:14:53 UTC.
Copyright © 1999 - 2016 VideoGameJam.com. All rights reserved.