VGJam Tabs Final Fantasy II
Final Fantasy II
"The Land of Dwarves (Underworld)" - Guitar tab
Platform(s):Super NES
Composed by:Nobuo Uematsu
Tabbed by:Arcallach
Last modified:2002-04-27
Print it:Original file (.TXT)
Hear it:MIDI file
Song: Land of Dwarves
From: Final Fantasy IV
Tabbed by Arcallach (arcallach@erols.com)
Feel free to send comments, corrections, requests, or anything else.

Flute

e---3-7-10-9~--5~--5-5-7-8~--10-8-7-3---3-5~--3-5~--3-3~----------------
B-5-----------------------------------5---------------------------------
G-----------------------------------------------------------------------
D-----------------------------------------------------------------------
A-----------------------------------------------------------------------
E-----------------------------------------------------------------------

e----8-7-8-6~--5-3~----4-3-4-3~--1-0~-----8-7-8-6~--5-3~--6-5-3-1-0-5~--
B-10-----------------6-----------------10-------------------------------
G-----------------------------------------------------------------------
D-----------------------------------------------------------------------
A-----------------------------------------------------------------------
E-----------------------------------------------------------------------

VGJam Tabs Final Fantasy II - "The Land of Dwarves (Underworld)"
Tabs database last modified Tuesday, 01-Nov-2016 19:14:53 UTC.
Copyright © 1999 - 2016 VideoGameJam.com. All rights reserved.