VGJam Tabs Final Fantasy II
Final Fantasy II
"Melody of Lute (Edward's theme)" - Guitar tab
Platform(s):Super NES
Composed by:Nobuo Uematsu
Tabbed by:Josh "AL" Tallman
Last modified:1999-05-06
Print it:Original file (.TXT)
Hear it:MIDI file
Melody Of Lute "Edwards Theme"

Tabbed by:  Josh "AL" Tallman

Hello people,and Final Fantasy Fans!  I heard this song and really liked it
and wanted to play it but I didn't have a harp.  So I thought I might tab it
so I could play it on Guitar.  Well Here is my attempt at it, and please send
e-mail to me with your comments, curses, or whatever.  Sephiros8@aol.com

-<((NOTE))>-                        (music wise)
                                        |
                                       \|/         
      :This song is not on the same scale as the arranged version you will 
         find on "Celtic Moon", but rather straight from the game.  So 
         go to the MIDI page for Final Fantasy II, and download 
         Melody Of Lute there, and play with it.

      :Also, None of these notes are plucked at the same time.

First Part
| |-12-----12-0---10---8----8-----7---6-7---------5------------------------|
| |---11-12----12----7--5-6---6-8---------5-6-8----------------------------|
| |-----------------7---------------7-----------7--------------------------|
| |------------------------------------------------------------------------|
| |------------------------------------------------------------------------|
| |------------------------------------------------------------------------|

Second Part
| |-13------13------12------10-----10-----8---7-8--------------------------|
| |---12-13---10-13------12------8------8------------8---------------------|
| |-------------------12------10------9-----9-------9-9--------------------|
| |-----------------------------------------------10---10------------------|
| |------------------------------------------------------------------------|
| |------------------------------------------------------------------------|

Third Part
| |-15----15----13-----12----13----10---12-13-----12--10-12----12----10---10----------------------------|
| |-----12----12--10-11----11----10--11----------------------13----13----9---12-13----------12-13-------|
| |---14----12-----------12----10------------12-14--10-----12----12----10---9-----10-12---10-----12-9---|
| |-------------------------------------------------------------------------------------12-----------10-|
| |-----------------------------------------------------------------------------------------------------|
| |-----------------------------------------------------------------------------------------------------|

Fourth Part
| |-------------12----------10-----8-------------------------------12----------10----8----8---------10-12----10------------------12--13-12---|
| |-12----12----------12--------10----12-13--8-10-8---12-----12----------12--------10---12-----10-13-------10----13-12-----------------------|
| |---9-12--9-12--9-12--9-12--10----10-----10-------10---9-12--9-12--9-12--9-12--10---10---9-10----------10----10-------10-12------12-----12-|
| |-------------------------------------------------------------------------------------------------------------------12-----9-12------------|
| |------------------------------------------------------------------------------------------------------------------------------------------|
| |------------------------------------------------------------------------------------------------------------------------------------------|

...continued
| |-10-8----------10----------8------10-----8-----5-----7------------------|
| |-------10----10-----9-----9--8--9------9-----6-----6---6-8--------------|
| |-----9------9-----8------8-----------8-----7-----7---------7------------|
| |---------10-----------10------------------------------------------------|
| |------------------------------------------------------------------------|
| |------------------------------------------------------------------------|

VGJam Tabs Final Fantasy II - "Melody of Lute (Edward's theme)"
Tabs database last modified Tuesday, 01-Nov-2016 19:14:53 UTC.
Copyright © 1999 - 2016 VideoGameJam.com. All rights reserved.