VGJam Tabs Final Fantasy II
Final Fantasy II
"Melody of Lute (Edward's theme)" - Guitar tab
Platform(s):Super NES
Composed by:Nobuo Uematsu
Tabbed by:Gianpiero Ciammaricone
Last modified:1999-05-06
Print it:Original file (.TXT)
Hear it:MIDI file
Melody of Lute (Edward's Theme)
>From Final Fantasy IV
Original by: Nobuo Uematsu (The god of video game music)
Arrangement by: Gianpiero Ciammaricone
                http://cguitar.cjb.net
                gianpiero@a-vip.com
                ICQ#: 1777481 (Nickname: cian)                             


This is a simple arrangement for guitar of the "Melody of Lute" song,
which is the theme for Edward in Final Fantasy IV. I love this song,
so I decided to make a transcription. I have also done transcriptions
for Aria di Mezzo Carraterre (From Final Fantasy VI, for 2 guitars) and
Cry in Sorrow (From Final Fantasy IV, for 2 guitars). You can find them
at RPGamer ( www.rpgamer.com ) or at my homepage ( cguitar.cjb.net ),
where you can also find dozens of classical guitar songs in tablature
format... Enjoy!!!
 

                                                                   
E||---------------------|--------------------|--------------------|
B||---5--------5--------|--3-----------------|--1--------0--------|
G||*--------0--------0--|-----------5--------|--------0--------3--|
D||*-----4--------2-----|-----0--4-----2--3--|-----3--------0-----|
A||---------------------|--------------------|--------------------|
E||---------------------|--------------------|--------------------|


                                                               
|--------------------|--1--------1--------|--0-----------------|
|--0-----------------|--------1--------1--|-----------3--------|
|-----------0-----2--|-----4--------2-----|--------4--------0--|
|-----2--3-----0-----|--------------------|-----5--------3-----|
|--------------------|--------------------|--------------------|
|--------------------|--------------------|--------------------|


                                                               
|--------------------|--------------------|--3--------3--------|
|--3--------1-----0--|--1-----------------|--------0--------0--|
|--------0-----------|-----------0--------|-----2--------0-----|
|-----2--------2-----|--------2-----2-----|--------------------|
|--------------------|-----3-----------3--|--------------------|
|--------------------|--------------------|--------------------|


                                                               
|--1--------0--------|--1--------------0--|--1--------0--------|
|--------------------|-----------3--------|-----------------3--|
|-----2--3-----0--3--|--------2-----3-----|-----0--2-----------|
|--------------------|-----3--------------|--------------3-----|
|--------------------|--------------------|--------------------|
|--------------------|--------------------|--------------------|


                                                               
|--0--------0--------|--------------------|--------------------|
|--------1--------1--|--3--------3-----0--|--1--------------0--|
|-----0--------0-----|--------1-----------|--------0-----------|
|--------------------|-----3--------2-----|-----3-----0--3-----|
|--------------------|--------------------|--------------------|
|--------------------|--------------------|--------------------|


                                                             
|------------------|--------------------|--0-----------------|
|--1---------------|--0--------0--------|-----------0--------|
|-----0------------|--------0--------0--|--------0--------0--|
|--------2---------|-----2--------2-----|-----2--------2-----|
|-----------3------|--------------------|--------------------|
|------------------|--------------------|--------------------|


                                                               
|--------------------|--------------------|--------------------|
|--3--------1-----0--|--1-----------------|--0--------0--------|
|--------2-----------|--------0--2--0-----|--------0--------0--|
|-----3--------3-----|-----3-----------3--|-----2--------2-----|
|--------------------|--------------------|--------------------|
|--------------------|--------------------|--------------------|


                                                               
|--0-----------------|--------------------|--------------------|
|-----------0--------|--3--------1-----0--|--1-----------1--3--|
|--------0--------0--|--------2-----------|-----------2--------|
|-----2--------2-----|-----3--------3-----|-----2--3-----------|
|--------------------|--------------------|--------------------|
|--------------------|--------------------|--------------------|


                                                               
|--0-----------------|--------------------|--0-----1--0--------|
|-----------3-----1--|--0-----------------|-----------------3--|
|--------2-----------|-----------0--------|-----0--------0-----|
|-----3--------3-----|-----0--3--------0--|--------------------|
|--------------------|--------------2-----|--------------------|
|--------------------|--------------------|--------------------|


                                                               
|--------------------|--------------------|--------------------|
|--1-----------------|--3-----------------|--1--------3--------|
|--------2--------2--|--------1--------1--|-----0--1--------1--|
|-----2--------2-----|-----1--------1-----|--------------1-----|
|-----------3--------|-----------3--------|--------------------|
|--------------------|--------------------|--------------------|


                                        2x                 
|--------------------|-------------------||---------------||
|--1-----------------|--0----------------||---------------||
|-----------2--------|--------0---------*||---------------||
|-----0--3-----0--3--|-----3-----0------*||---------------||
|--------------------|-------------------||--3------------||
|--------------------|-------------------||---------------||



VGJam Tabs Final Fantasy II - "Melody of Lute (Edward's theme)"
Tabs database last modified Tuesday, 01-Nov-2016 19:14:53 UTC.
Copyright © 1999 - 2016 VideoGameJam.com. All rights reserved.