VGJam Tabs Final Fantasy II
Final Fantasy II
"Overworld" - Guitar tab
Platform(s):Super NES
Composed by:Nobuo Uematsu
Tabbed by:Jonas Ohlsson and Eric Hache
Last modified:1999-05-06
Print it:Original file (.TXT)
Hear it:MIDI file
   Riff 1
e |--------------------|
B |--------------------|
G |--------2--5--4-----|
A |--0--3-----------5--|
E |--------------------|

   Riff 2
e |------------------------------------------------|
B |------------------------------------------------|
G |------------------------------------------------|
D |-----2--3---5--3--2-----------------------------|
A |--5------------------3---0--3--5---3--5---3--3--|
E |------------------------------------------------|

   Riff 3
e |--------------------------------|
B |--------------------------------|
G |--------------2--0-----0--------|
D |--0--3--2--3--------3-----2-----|
A |-----------------------------3--|
E |--------------------------------|

   Riff 4
e |--------------------------------|
B |--------------------------------|
G |--------------2--0-----0--------|
D |--0--3--2--3--------3-----2-----|
A |--------------------------------|
E |--------------------------------|

   Riff 5
e |--------------------------------|
B |--------------------------------|
G |--------------4--2--------------|
D |--2--5--4--5--------5--7--4--0--|
A |--------------------------------|
E |--------------------------------|

   Riff 6
e |--------------------------|
B |--------------------------|
G |---------------4--2-------|
D |--2--5--4--5--------5--7--|
A |--------------------------|
E |--------------------------|


e |------------------------1-0-1-5-3-1-3-0------0h1-3----3p1-0--|
B |--------------5-3-1-3-3--------------------------------------|
G |-----5--4--5-------------------------------------------------|
D |--7----------------------------------------------------------|
A |-------------------------------------------------------------|
E |-------------------------------------------------------------|
VGJam Tabs Final Fantasy II - "Overworld"
Tabs database last modified Tuesday, 01-Nov-2016 19:14:53 UTC.
Copyright © 1999 - 2016 VideoGameJam.com. All rights reserved.