VGJam Tabs Final Fantasy II
Final Fantasy II
"Red Wings" - Guitar tab
Platform(s):Super NES
Composed by:Nobuo Uematsu
Tabbed by:Thomas McManus
Last modified:1999-11-24
Print it:Original file (.TXT)
Hear it:MIDI file
Game: Final Fantasy IV (II U.S.)
Song: Red Wings
Tabbed by: Thomas McManus (tom0015@hotmail.com)

riff:

e-6-6-6-5-5-5-4-4-4-3~~--6-6-6-5-5-5-4-4-4-
B------------------------------------------
G------------------------------------------
D------------------------------------------
A------------------------------------------
E------------------------------------------


part A:

e-3-----10--8--6-5-8-6-3--10--3--6-8-10-11-15~--13--11-8-7~~-
B----3-------------------------------------------------------
G------------------------------------------------------------
D------------------------------------------------------------
A------------------------------------------------------------
E------------------------------------------------------------


part B:

e-3-0-3-3-0--3-3-3-0--6-3-6-6-3--6-6-6-3-3-0-3-3-0--3-3-3-0--
B------------------------------------------------------------
G------------------------------------------------------------
D------------------------------------------------------------
A------------------------------------------------------------
E------------------------------------------------------------

e-6-3-6-6-3--6-6-6-3-3-7-7--7--7-7-7-7~~~~-------------------
B------------------------------------------------------------
G------------------------------------------------------------
D------------------------------------------------------------
A------------------------------------------------------------
E------------------------------------------------------------


The order of the song is:

riff
part A
riff
part A
riff
part B

Then drop the first riff and play from A, repeating endlessly.
VGJam Tabs Final Fantasy II - "Red Wings"
Tabs database last modified Tuesday, 01-Nov-2016 19:14:53 UTC.
Copyright © 1999 - 2016 VideoGameJam.com. All rights reserved.