VGJam Tabs Final Fantasy II
Final Fantasy II
"Rydia" - Guitar tab
Platform(s):Super NES
Composed by:Nobuo Uematsu
Tabbed by:Micail Zhuo
Last modified:2000-06-06
Print it:Original file (.TXT)
Hear it:MIDI file
FF4-Rydia

One of my favourite old pieces, rearranged from the FF4 Piano collections for solo play. 
The bass is still a bit lacking, anyone who can rearrange it further, please do so, 
music's for everyone :)

Enjoy,
Micail Zhuo 6/6/2000
Email:Micail4@hotmail.com

Tempo: 82

4/4
|----3-------------------|----3-------------------|
|-------3----------------|-------3----------------|
|----------0-------------|----------0-------------|
|------------------------|------------------------|
|-3----------------------|-0----------------------|
|------------------------|------------------------|



|----3-------------------|----3-------------------|
|-------3----------------|-------3----------------|
|----------0-------------|----------0-------------|
|------------------------|------------------------|
|------------------------|------------------------|
|-1----------------------|-3----------------------|



|----3-------------------|----3-------------------|
|-------3----------------|-------3----------------|
|----0-----0-------------|----------0-------------|
|------------------------|------------------------|
|-3----------------------|-0----------------------|
|------------------------|------------------------|



|----3-------------------|----3-------------------|
|-------3----------------|-------3----------------|
|----------0-------------|----------0-------------|
|------------------------|------------------------|
|------------------------|------------------------|
|-1----------------------|-3----------------------|



|----0-------------------|----0-----------------0-|
|-3-----1----------------|-3-----1----------------|
|----------------------0-|------------------------|
|------------------------|------------------------|
|-3----------------------|-0----------------------|
|------------------------|------------------------|



|-0--1-------------------|------------|----0-------------------|
|-------3----------------|-1--0-------|-3-----1----------------|
|----------------------2-|----------0-|----------------------0-|
|------------------------|------------|------------------------|
|------------------------|------------|-3----------------------|
|-1----------------------|-3----------|------------------------|



|----0-----------------0-|-0--1-------------------|-0----------|
|-3-----1----------------|-------3----------------|----3-------|
|------------------------|-------------------2----|------------|
|------------------------|------------------------|------------|
|-0----------------------|------------------------|------------|
|------------------------|-1----------------------|-3----------|



|-3--5--------------0----|------------|-5--7-------------------|
|-------0--------0-----3-|-3--1-------|-------------------6--5-|
|------------------------|------------|-------5--------5-------|
|------------------------|------------|-3----------------------|
|------------------------|-0----------|------------------------|
|-0----------------------|------------|------------------------|



|------------|----0-------------------|----0--3----------------|
|-5--3-------|-3-----1----------------|-3----------------------|
|------------|----------------------0-|----------------------2-|
|------------|------------------------|------------------------|
|------------|-3----------------------|-0----------------------|
|-3----------|------------------------|------------------------|



|-3-----1--0-------------|------------------------|
|-------------3-----1----|-3--4-------------------|
|------------------------|-------5--------------0-|
|-0----------------------|------------------------|
|------------------------|------------------------|
|------------------------|-4----------------------|



|------------------------|----0-------------------|
|-3--4-------------------|-3-----1----------------|
|-------5--------------0-|------------------------|
|-3----------------------|------------------------|
|------------------------|-3----------------------|
|------------------------|------------------------|



|----3-------------------|----3-------------------|
|-------3----------------|-------3----------------|
|----------0-------------|----------0-------------|
|------------------------|------------------------|
|-3----------------------|-0----------------------|
|------------------------|------------------------|



|----3-------------------|----3-------------------|
|-------3----------------|-------3----------------|
|----------0-------------|----------0-------------|
|------------------------|------------------------|
|------------------------|------------------------|
|-1----------------------|-3----------------------|



|----3-------------------|----3-------------------|
|-------3----------------|-------3----------------|
|----0-----0-------------|----------0-------------|
|------------------------|------------------------|
|-3----------------------|-0----------------------|
|------------------------|------------------------|



|----3-------------------|----3-------------------|
|-------3----------------|-------3----------------|
|----------0-------------|----------0-------------|
|------------------------|------------------------|
|------------------------|------------------------|
|-1----------------------|-3----------------------|
 
Fade out... or repeat as many times as you like

VGJam Tabs Final Fantasy II - "Rydia"
Tabs database last modified Tuesday, 01-Nov-2016 19:14:53 UTC.
Copyright © 1999 - 2016 VideoGameJam.com. All rights reserved.