VGJam Tabs Final Fantasy II
Final Fantasy II
"Victory theme" - Guitar tab
Platform(s):Super NES
Composed by:Nobuo Uematsu
Tabbed by:Thomas McManus
Last modified:2000-01-04
Print it:Original file (.TXT)
Hear it:MIDI file
Game: Final Fantasy IV (II U.S.)
Song: Fanfare
Composer: Nobuo Uematsu
Tabbed by: Thomas McManus (tom0015@hotmail.com)

INTRO:
e------------------------------------
B------------------------------------
G------------------------------------
D-3/10-10-10-10-8-7-6-5-7-9-10-8-10--
A------------------------------------
E------------------------------------


MAIN:
e------------------------------------
B------------------------------------
G-0---0---3-3-2-2-3-2-2-0------------
D---3---3-----------------3-2-3-0----
A------------------------------------
E------------------------------------

e------------------------------------
B-------------------------------1----
G-0---0---3-3-2-2-3-2-2-0---0-3------
D---3---3-----------------3----------
A------------------------------------
E------------------------------------

Play the intro once, then repeat the main section ad infinitum

VGJam Tabs Final Fantasy II - "Victory theme"
Tabs database last modified Tuesday, 01-Nov-2016 19:14:53 UTC.
Copyright © 1999 - 2016 VideoGameJam.com. All rights reserved.