VGJam Tabs Final Fantasy III
Final Fantasy III
"Battle Theme" - Guitar tab
Platform(s):Super NES
Composed by:Nobuo Uematsu
Soundtrack:Final Fantasy VI Original Sound Version [PSCN-5001~3] (track D1-05)
Tabbed by:Deezer
Last modified:2000-04-26
Print it:Original file (.TXT)
Hear it:MIDI file
#----------------------------------PLEASE NOTE---------------------------------#
#This file is the author's own work and represents their interpretation of the #
#song. You may only use this file for private study, scholarship, or research. #
#------------------------------------------------------------------------------#

Final Fantasy III (Super NES) / Final Fantasy VI (Super Famicom)
"Battle theme"

Originally composed by: Nobuo Uematsu
------------------------------------------------------------------------------
Tabbed by: Deezer (deezer@usa.net)
For http://www.kontek.net/vgjam/
------------------------------------------------------------------------------

Symbols used:
 ~ = let ring / slight vibrato
 p = pull-off

Standard Tuning - (low to high) EADGBe


Part 1:
=======
-----------12-15-13----13-12------------------------------------------
-----12-13----------15--------------15-13-----------------------------
--14--------------------------14~---------15-14~-------------12-------
-------------------------------------------------14~---14-15-----14~--
----------------------------------------------------------------------
----------------------------------------------------------------------

-----------12-15-13----13-12-------------------------------------
-----12-13----------15------------15--13-------------------------
--14--------------------------14---------15-14~---------12-------
--------------------------------------------------14-15-----14~--
-----------------------------------------------------------------
-----------------------------------------------------------------

Part 2:
=======
|------------------------------------------
|------------13-13-------------------------
|--14-14--15--------15-14--15-14--------15-
|---------------------------------14-15----
|------------------------------------------
|------------------------------------------

 ------------------------------------------14--|
 -----------13-13--15-13----------------14-----|
 -14-14--15--------------15p14p12----15--------|
 --------------------------------15------------|
 ----------------------------------------------|
 ----------------------------------------------| x2

Play Part 1 again. The rest is all strings, which I don't feel like figuring
out, but here's what's played before the song starts over:

--17---17---17---17---20--19---17---17---16--
--17---17---17---17---20--19---17---17---17--
-----------------------------------------19--
---------------------------------------------
---------------------------------------------
---------------------------------------------


Last revised: 4/26/2000

VGJam Tabs Final Fantasy III - "Battle Theme"
Tabs database last modified Tuesday, 01-Nov-2016 19:14:53 UTC.
Copyright © 1999 - 2016 VideoGameJam.com. All rights reserved.