VGJam Tabs Final Fantasy III
Final Fantasy III
"Battle Theme" - Bass tab
Platform(s):Super NES
Composed by:Nobuo Uematsu
Soundtrack:Final Fantasy VI Original Sound Version [PSCN-5001~3] (track D1-05)
Tabbed by:beaupre_a
Last modified:2005-02-16
Print it:Original file (.TXT)
Hear it:MIDI file
FINAL FANTASY VI
Battle Theme (Bass)

Composed by Nabuo 

Tabbed by Alex
beaupre_a@hotmail.com


INTRO

G|----------------|
D|----------------|
A|----------------|
E|5-5-5-5-5-5-3-3-| x2



PART A :

G|-----------------------------|
D|-----------------------------|
A|---7-----8--5----7-----8-5---|
E|5----5-6------5----5-6-----6-| x2



PART B:

G|------------------------|
D|------------------------|
A|------------------------|
E|5-5---6-6---5~--3~--6~--| x2

G|-------------------------------|
D|------7-------8-7--------------|
A|----7-------8-----7-5------5-8-|
E|5-5-----6-6-----------3--6-----| x1

G|---------------------------------|
D|------7-------8-7----------------|
A|----7-------8-------5-8----5-8---|
E|5-5-----6-6-------5-----6------6-| x1


THEN PART A x2

THEN BRIDGE :

G|------------------------|
D|------------------------|
A|------------------------|
E|5-5---5-5---5-5---5-5---|

G|------------------------------|
D|----------------------------5-|
A|--------------------------6---|
E|6-5-8-6-5-0--3--5-653-5-6-----|

G|------------------------|
D|------------------------|
A|------------------------|
E|5-5---5-5---5-5---5-5---|



ENDING :

G|---------------------------|
D|----7-------8--------------|
A|--------------------9-10-8-|
E|5~----5-6~----6-7-8--------|

G|-----------------------------|
D|---------7-------------------|
A|-------7--------4-8----------|
E|6-3-5-------5-6------3-4-5---|

G|------------------------|
D|------------------------|
A|--------------7-----5---|
E|5---5---0~--7-----5---7-|


BACK TO PART A


The timing is really hard to get right in the ending,
you have to listen to the song very carefully. 

Comments ? Correction ?
beaupre_a@hotmail.com

VGJam Tabs Final Fantasy III - "Battle Theme"
Tabs database last modified Tuesday, 01-Nov-2016 19:14:53 UTC.
Copyright © 1999 - 2016 VideoGameJam.com. All rights reserved.