VGJam Tabs Final Fantasy III
Final Fantasy III
"Coin Song" - Guitar tab
Platform(s):Super NES
Composed by:Nobuo Uematsu
Soundtrack:Final Fantasy VI Original Sound Version [PSCN-5001~3] (track D2-02)
Tabbed by:Tony Lopez
Last modified:2003-01-09
Print it:Original file (.TXT)
FFVICOIN.TAB
transcribed by Tony Lopez
mordenkaidenpendragn@lycos.com

This is the song played during the coin toss between Edgar & Sabin 
Coin Song
--------------------------------------------------------------------

                                        twice 1. then 2.

e:---4--7--6-----4--|-----4------------|--------------9--7--9--11------|
B:---5--5--7--7--4--|--5--5--7---------|-----------9---------------12--|
G:---4--4--6--6--5--|--6--6--8------9--|-----8--9----------------------|
D:------------8--6--|--7-----9--10-11--|--11----------7---------9------|
A:------------------|-----------9--11--|-------------------------------|
E:------------------|------------------|-------------------------------|


                     1.___________________  2.____________________________________

e:------------------|----------------------|---------------------------------------|
B:--9--7--9--12--9--|-------------9--------|------------9--11--13--14----------14--|
G:------------------|--11--9--11-----9-----|--11--9--11------------11--13--11--10--|
D:------------------|-------------------11-|---------------------------------------|
A:--7---------9-----|----------------------|---------------------------------------|
E:------------------|--10---------8-----9--|--10--------8--------------------------|



e:-----------------------------14-12----|-----------------------------|
B:--12--14------------------14-------14-|--14-15----------------15-14-|
G:----------14--11--13--14--------------|--------14-11----11-14-------|
D:--------------------------------------|--------------12-------------|
A:--------------------------------------|-----------------------------|
E:--------------------------------------|-----------------------------|



e:----------------------14-16-12-|-----------------|--21-22----------|
B:-12-14-------------14----------|--14-15----------|--------22-21-19-|
G:-------14-11-13-14-------------|--------14-13-11-|-----------------|
D:-------------------------------|-----------------|-----------------|
A:-------------------------------|-----------------|-----------------|
E:-------------------------------|-----------------|-----------------|



e:-----------------|--19-20----------------------|
B:--12-13----------|--------20-19-17-------17-19-|
G:--------12-11-9--|-----------------17-19-------|
D:-----------------|-----------------------------|
A:-----------------|-----------------------------|
E:-----------------|-----------------------------|

VGJam Tabs Final Fantasy III - "Coin Song"
Tabs database last modified Tuesday, 01-Nov-2016 19:14:53 UTC.
Copyright © 1999 - 2016 VideoGameJam.com. All rights reserved.