VGJam Tabs Final Fantasy III
Final Fantasy III
"Another World of Beasts (Esper theme)" - Guitar tab
Platform(s):Super NES
Composed by:Nobuo Uematsu
Tabbed by:Thomas McManus
Last modified:2000-01-11
Print it:Original file (.TXT)
Hear it:MIDI file
Game: Final Fantasy VI
Song: Another World of Beasts
Composer: Nobuo Uematsu
Tabbed by: Thomas McManus (tom0015@hotmail.com)

This is just the haunting lead part, I'm not about to touch
those strings playing in the background.

e-6-----4-6~-6-----4---7~-6-----4-6~-----------------------
B---6-7--------6-7---5------6-7--------7-6-4-----4~--------
G------------------------------------4-------6-4-----------
D----------------------------------------------------------
A----------------------------------------------------------
E----------------------------------------------------------

e----------------------------------------------------------
B---7-6-4-----4~---11-11\10\9\8\7-7\6\5\4-----11-----------
G-4-------6-4------------------------------3---------------
D----------------------------------------------------------
A----------------------------------------------------------
E----------------------------------------------------------

e----------------------------------------------------------
B-11\10\9\8\7-7\6\5\4~-------------------------------------
G----------------------------------------------------------
D----------------------------------------------------------
A----------------------------------------------------------
E----------------------------------------------------------

repeat from beginning

VGJam Tabs Final Fantasy III - "Another World of Beasts (Esper theme)"
Tabs database last modified Tuesday, 01-Nov-2016 19:14:53 UTC.
Copyright © 1999 - 2016 VideoGameJam.com. All rights reserved.