VGJam Tabs Final Fantasy III
Final Fantasy III
"Awakening (Terra's theme)" - Guitar tab
Platform(s):Super NES
Composed by:Nobuo Uematsu
Tabbed by:Wriggler
Last modified:2001-03-17
Print it:Original file (.TXT)
Hear it:MIDI file
Song- Awakening
Game-Final Fantasy 3/6j
Original Composer- Nobuo Uematsu
Tab- Wriggler

heres the full version with the intro and everything, I got it straight
from the CD. Dont use any major distorted sounds on this song

intro 1 
this is the "string" section, use a lot of chorus or something
it needs to sound very big and atmospheric. all notes ring

e|0------0---------
B|12----10----8---- repeat throughout intro 
G|------------8----

intro 2 . lead guitar

e|14~----12-----10--8-----------7~~~~~~p5----3p0h2h3 / 7/10--14~
B|---------12---------8---4h5p4---------------------------------
G|-----------12------------------------------------------------- >

e|---12-----17~~~p15---------15~~---13--12~
B|----------------------------------------
G|--------------------16/17---------------



now play intro 1 again in time with riff 2, but now only play the first 
two chords

riff 2  slightly mute the string, pick lighter each time

e|14h15--------------12h13     2X
        play 8X then 

Riff 3 A- Main Lead

B|--------17---------------------------17----------------17~
G|14h16-17--17-----16p14h16----14h16-17--17-----16p14h16---
D|-------------------------14------------------------------

B|---15-17/20\17~--15p13h15~-------------------------------
G|17-------------------------12--------17p16-14----17p16-14

Riff 3 A- String Section. Let notes ring

e|0--------0-------0-------0            0------0-------0
B|13-------17------13------12 |3x|then  13-----15-----13

Now Repeat From the Post Intro 

there ya go! I hope you enjoy this, with nice clean tones. It should sound
Great! 

VGJam Tabs Final Fantasy III - "Awakening (Terra's theme)"
Tabs database last modified Tuesday, 01-Nov-2016 19:14:53 UTC.
Copyright © 1999 - 2016 VideoGameJam.com. All rights reserved.