VGJam Tabs Final Fantasy III
Final Fantasy III
"Boss battle ("The Decisive Battle")" - Guitar tab
Platform(s):Super NES
Composed by:Nobuo Uematsu
Tabbed by:Livewire626
Last modified:2000-12-24
Print it:Original file (.TXT)
Hear it:MIDI file
Title:Final Fantasy 6-boss battle
Author:Livewire626
Comments:I CAN'T THINK!!!AAAAAAAAAAAAAAAAAHHHHHHHHHHHHHHH!!!!!!!!!!!!!!

|---------------------------------
|---------------------------------
|---------------------------------
|-2-----3-----4-----3-----1---1h2-
|---3p0---3p0---3p0---3p0---2-----
|--------------------------------- play 4x

|--------------------|---
|--------------------|---
|--------------------|---
|---2-0--------0-----|---
|-0-----3--2-3---2---|0--
|------------------3-|--- play 2x

|--------------------------|-------------------------------
|--------------------------|-------------------------------
|---2-4-5-4-2--------------|-----------------------2---1---
|-2-----------2---2---2---2|-0-2---2-0-2-3-3-----3---0---0-
|---------------3---0---3--|-----3-----------2-3-----------
|--------------------------|-------------------------------

|----------------------------|-----------------------------
|-----1-0--------------------|-----------------------1-----
|-2-------2------------------|-------------------------2-1-
|---2-------2-------2---2---2|-0-2---2-0-2-2---4-0-2-------
|-------------3-0-3---0---3--|-----3---------3-------------
|----------------------------|-----------------------------

|---------|---------------------|----|--------------------------|------
|-1---3---|5--3--5--1-2-1-0-1-0-|----|--------------------1-3-4-|6-7---
|-2---4---|6--4--6--0-----0-----|3--5|-----1--0-5-7-2-4-5-0-----|5-5---
|---------|---------------------|3--5|--0-------5-7-------------|------
|---------|---------------------|----|--------------------------|------
|---------|---------------------|----|--------------------------|------

|------------|---------------------
|------------|-------3-2-1-0-------
|-0-2-0-2-4-2|-4-6-4-4-3-2-1-4-3-2-
|------------|---------------4-3-2-
|------------|---------------------
|------------|---------------------

VGJam Tabs Final Fantasy III - "Boss battle ("The Decisive Battle")"
Tabs database last modified Tuesday, 01-Nov-2016 19:14:53 UTC.
Copyright © 1999 - 2016 VideoGameJam.com. All rights reserved.