VGJam Tabs Final Fantasy III
Final Fantasy III
"Celes's theme" - Guitar tab
Platform(s):Super NES
Composed by:Nobuo Uematsu
Tabbed by:Jonas Ohlsson
Last modified:1999-05-06
Print it:Original file (.TXT)
Hear it:MIDI file
FINAL FANTASY III Guitar Tab
Celes Theme/Aria de Mezzo Caraterre 
Version 1.01
Made By: Jonas "Watts" Ohlsson 
Corrections By: T.J "TankTNT" Nguyen

What's New:
1.01
  * Added alternative ending

     Riff 1                      Riff 2
e |---------------------0-----|---------------------------|
B |------1------------1-------|--3-5-6---6-5-3------------|
G |--2-3----------2-4---------|----------------5----------|
D |--------3------------------|---------------------------|
A |---------------------------|---------------------------|
E |---------------------------|---------------------------|

     Riff 3                      Riff 4                                                       
e |---------------------------|---------------------------|
B |---------------------------|--------------1------------|
G |--5-5-3-2-3---3-3-2-1-2----|--2-2-1---2-3--------------|
D |---------------------------|--------4------------------|
A |---------------------------|---------------------------|
E |---------------------------|---------------------------|

When you play it again replace Riff 4 with this:

e |---------------------------|
B |---------------------------|
G |--2-2-1---1----------------|
D |--------4---4--------------|
A |---------------------------|
E |---------------------------|







VGJam Tabs Final Fantasy III - "Celes's theme"
Tabs database last modified Tuesday, 01-Nov-2016 19:14:53 UTC.
Copyright © 1999 - 2016 VideoGameJam.com. All rights reserved.