VGJam Tabs Final Fantasy III
Final Fantasy III
"The Day After" - Guitar tab
Platform(s):Super NES
Composed by:Nobuo Uematsu
Tabbed by:Thomas McManus
Last modified:2000-03-21
Print it:Original file (.TXT)
Hear it:MIDI file
Song: The Day After
Game: Final Fantasy VI
Composer: Nobuo Uematsu
Tabbed by: Thomas McManus (tom0015@hotmail.com)

e-8p7h8p5~~-0---2-7~~-6p5h6-13~~-12~~--8p7h8p5~~-0---2-7~~------
B-------------4------------------------------------4------------
G---------------------------------------------------------------
D---------------------------------------------------------------
A---------------------------------------------------------------
E---------------------------------------------------------------

e-6p5h6-13~~-12~~-10p8p7----------------------------------------
B---------------------------0--0---0-------0--0---0-------0--0--
G-------------------------2------2---2---2------2---2---2-------
D--------------------------------------2--------------2---------
A---------------------------------------------------------------
E---------------------------------------------------------------

e---------------------------------------------------------------
B---0-------0--0---0------1~~-0-1-------0-1--3-1h3p1-0-1--------
G-2---2---2------2---2------------2~~-2------------------2~~----
D-------2--------------2----------------------------------------
A---------------------------------------------------------------
E---------------------------------------------------------------

e------------------------------------0~~---0---------0-3--2h3p2-
B-1~~-0-1-------0-1--3-1h3p1-0-1---------3---1~~-1-3------------
G---------2~~-2------------------2~~----------------------------
D---------------------------------------------------------------
A---------------------------------------------------------------
E---------------------------------------------------------------

e---0~~---------------------------------------------------------
B-3------1~~-0-1-------0-1--3-1h3p1-0-1-------------------------
G----------------2~~-2------------------2~~---------------------
D---------------------------------------------------------------
A---------------------------------------------------------------
E---------------------------------------------------------------

Then repeat from the beginning.

VGJam Tabs Final Fantasy III - "The Day After"
Tabs database last modified Tuesday, 01-Nov-2016 19:14:53 UTC.
Copyright © 1999 - 2016 VideoGameJam.com. All rights reserved.